Song name
# A B C D E F G H I J K L M N O P Q R S T U V W X Y Z

Something With Numbers - Goodbye Mickey Finn tab

Song:	Goodbye Mickey Finn
Band:	Something With Numbers

Standard Tuning

Intro
e-----------------------------------------------------------------|
B-----------------------------------------------------------------|
G-----6-6-6-6-6-6----9-9-9----7-7-7----6-6-6---4-4---6-6-6---4-4--| Repeat x2
D-----7-7-7-7-7-7----7-7-7----7-7-7----4-4-4---4-4---4-4-4---4-4--|
A-----------------------------------------------------------------|
E-----------------------------------------------------------------|

Verse
Guitar 1
e----------------------------------------------------|
B----------------------------------------------------|
G-----7---9------------9--11--7-----9--11--12--14----|
D----------------------------------------------------|
A----------------------------------------------------|
E----------------------------------------------------|
						         Repeat x5
Guitar 2
e-----------------------------------------------------|
B-----------------------------------------------------|
G-----4--4----9-9-9----7-7-7--------------------------|
D-----4--4----7-7-7----7-7-7--------------------------|
A-----2--2-------------5-5-5--------------------------|
E-----------------------------------------------------|
       B 	A	 D

Chorus
e------------------------------------------|
B---------------8--------------------------|
G------4--------7-------7--------6----7----|   Repeat x4
D------4--------5-------7--------7----7----|
A------2----------------5--------5----5----|
E------------------------------------------|
       B	G	D 	 D    D

Verse x4
Chorus x6

Solo (Behind violins)
e--------------------------------------------------------------------------|
B--------------------------------------------------------------------------|
G---14-14-14--14--12--11------14--14--12--11--------11h12p11-----12p11-----|
D------------------------12------------------12--------------12--------12--|
A--------------------------------------------------------------------------|
E--------------------------------------------------------------------------|

e-------------------------------------------|
B-------------------------------------------|
G--12p11-----12p11--------14--12--11--14----|
D--------12--------12-----------------------|
A-------------------------------------------|
E-------------------------------------------|

Chorus x6

End (on B)
Tap to rate this tab
 
# A B C D E F G H I J K L M N O P Q R S T U V W X Y Z