Song name
# A B C D E F G H I J K L M N O P Q R S T U V W X Y Z

Something With Numbers - Chase The Chaser tab

------------------------------------------------------------------------|
---------7----------5----------------3----------------------------------|
-------9----------7---------3------5------------------------------------|
-----9----------7---------5------5--------------------------------------|
---7---------5----------5------3----------------------------------------|
----------------------3-------------------------------------------------|
INTRO

------------------------------------------------------------------------|
------------------------------------------------------------------------|
---9-9--7--7-777---------5--5--555--------------------------------------|
---9-9--7--7-777---5-5---5--5--555----DO TWICE--------------------------|
---7-7--5--5-555---5-5---3--3--333--------------------------------------|
-------------------3-3--------------------------------------------------|


------------------------------------------------------------------------|
------------------------------------------------------------------------|
-7------9-11-12-11-11--14-14-12-11--12--11------------------------------|
--SLIDE-----------------------------------------------------------------|
-5------7-9--10-9--9---12-12-10-9---10--9-------------------------------|
------------------------------------------------------------------------|

------------------------------------------------------------------------|
------------------------------------------------------------------------|
-7------9-11-12-11-11-11-11-------7-7-9-7-------------------------------|
--SLIDE---------------------SLIDE---------------------------------------|
-5------7-9--10-9--9--9--9--------5-5-7-5-------------------------------|
------------------------------------------------------------------------|


------------------------------------------------------------------------|
------------------------------------------------------------------------|
--------0-------------0-------------------------------------------------|
----5-5---5--5----4-4---4-4-----DO FOUR TIMES---------------------------|
----7-7-----7-----5-5----5----------------------------------------------|
------------------------------------------------------------------------|


THEN BACK INTO THE INTRO THEN DO EVERYTHING UP TO THE LAST PART AND THEN DO THIS

----------7--------5----------------------------------------------------|
----------7--------5----------------------------------------------------|
------------------------DO THIS TWICE-----------------------------------|
------7---------4-------------------------------------------------------|
------5---------5-------------------------------------------------------|
------------------------------------------------------------------------|


----8-7--5---10--8--7--8---8--7--5--10--8-7--787--8-7--5---10--8--7--8--|
------------------------------------------------------------------------|
------------------------------------------------------------------------|

-----5-----7-------8------10--------------------------------------------

THATS ABOUT IT
Tap to rate this tab
 
# A B C D E F G H I J K L M N O P Q R S T U V W X Y Z