Song name
# A B C D E F G H I J K L M N O P Q R S T U V W X Y Z

Something With Numbers - Apple Of The Eye Lay Me Down tab

Apple of the Eye (Lay me Down)
Something With Numbers

Tabbed by Stuggy.

The Guitar Pro tab was close, but not quite right.



2 Guitars, Lead and Rhythm, both are in Drop D

INTRO (kind of, until Lead kicks in)

Rhythm Guitar
*clean*
e-------------------------------------------------------|
B-------------------------------------------------------|
G-------------------------------------------------------|
D--777--10-10-10-777-999999999--77777777----555/777-----|
A--888--8--8--8--888-888888888--77777777----000/000-----|
D-------------------------------------------------------| x4

	
VERSE
________________________________________________________________
Rhythm Guitar							|
*clean*								|
e-------------------------------------------------------|	|
B-------------------------------------------------------|	|
G-------------------------------------------------------|	|
D--777--10-10-10-777-999999999--77777777----555/777-----|	|
A--888--8--8--8--888-888888888--77777777----000/000-----|	|
D-------------------------------------------------------|	|
Lead Guitar						|	|
*Distortion*						|	|
e-------------------------------------------------------|	|
B-------------------------------------------------------|	|
G-------------------------------------------------------|	|
D--7-----10-----7-----5-----7-----10-----7--------------|	|
A----------------------------------------------7--------|	|
D-------------------------------------------------------|	|
								|
Rhythm Guitar							|
*clean*								|
e-------------------------------------------------------|	|
B-------------------------------------------------------|	|
G-------------------------------------------------------|	|
D--777--10-10-10-777-999999999--77777777----555/777-----|	|
A--888--8--8--8--888-888888888--77777777----000/000-----|	|
D-------------------------------------------------------|	|
Lead Guitar						|	|
*Distortion*						|	|
e-------------------------------------------------------|	|
B-------------------------------------------------------|	|
G-------------------------------------------------------|	|
D--7-----10-----7-----5-------------7b------------------|	|
A--------------------------------------------7b---------|	|
D-------------------------------------------------------|	| 
________________________________________________________________| x2



Smash Distortion Pedal on Rhythm

CHORUS

Rhythm Guitar  (Just play this the whole time through)
*Distortion*
e-------------------------------------------------------|
B-------------------------------------------------------|
G-------------------------------------------------------|
D---3------5------7-------------------------------------|
A---3-x8---5-x8---7-x16---------------------------------|
D---3------5------7-------------------------------------| x4
							



Lead Guitar				
*Distortion*						
e-------------------------------------------------------|
B-------------------------------------------------------|
G-------------------------------------------------------|
D-----7-7-7--10-10-10--7-7-7--10-10-10--9-10-9----------|
A-------------------------------------------------------|
D-------------------------------------------------------| x4

							
Lead Guitar						
*Distortion*						
e-------------------------------------------------------|
B-------------------------------------------------------|
G-------------------------------------------------------|
D-----10-10-10--9-9-9--10-10-10--9-9-9--10-10-12-12-----|
A-------------------------------------------------------|
D-------------------------------------------------------| x2

Lead Guitar				
*Distortion*					
e-------------------------------------------------------
B-------------------------------------------------------
G-------------------------------------------------------
D-----7-7-7--10-10-10--7-7-7--10-10-10--9-10-9----------
A-------------------------------------------------------
D------------------------------------------------------- 

Lead Guitar				
*Distortion*					
e-------------------------------------------------------|
B-------------------------------------------------------|
G-------------------------------------------------------|
D-----7-7-7--10-10-10--7-7-7--10-10-10--7---------------|
A-------------------------------------------------------|
D-------------------------------------------------------|



PLAY VERSE AGAIN



PLAY CHORUS AGAIN



BRIDGE

Rhythm Guitar	(play this the whole way through)					
*Distortion*						
e-------------------------------------------------------|
B-------------------------------------------------------|
G-------------------------------------------------------|
D---3------0------7-------------------------------------|
A---3-x8---0-x8---7-x16---------------------------------|
D---3------0------7-------------------------------------| x4

Rhythm Guitar	(on the 4th time through play this)					
*Distortion*						
e-------------------------------------------------------|
B-------------------------------------------------------|
G-------------------------------------------------------|
D---3------0------7------7-7-7-7-7-----------7----------|
A---3-x8---0-x8---7-x8---7-7-7-7-7--*BREAK*--7----------|
D---3------0------7------7-7-7-7-7-----------7----------| 




________________________________________________________________________
Lead Guitar								|
*Distortion*								|
e-------------------------------------------------------		|
B-------------------------------------------------------		|
G----10-10-10--9-9-9--10-10-10--9-9-9-9--10-9-10--------		|
D----X--X--X---X-X-X--X--X--X---X-X-X-X--X--X-X---------		|
A----8--8--8---7-7-7--8--8--8---7-7-7-7--8--7-8---------		|
D-------------------------------------------------------		|
									|
									|
Lead Guitar								|
*Distortion*								|
e-------------------------------------------------------		|
B-------------------------------------------------------		|
G----14-14-14--12-12-12--10-10-10--9-9-9-9--10-9-10-----		|
D----X--X--X---X--X--X---X--X--X---X-X-X-X--X--X-X------		|
A----12-12-12--10-10-10--8--8--8---7-7-7-7--8-7--8------		|
D-------------------------------------------------------		| 
________________________________________________________________________| x3

Lead Guitar						
*Distortion*						
e-------------------------------------------------------|
B-------------------------------------------------------|
G----9-----10----12----14-14-14-14-14---------14--------|
D----x-x8--x-X8--x-x8--x--x--x--x--x--*BREAK*-x---------|
A----7-----8-----10----12-12-12-12-12---------12--------|
D-------------------------------------------------------|




PLAY THE CHORUS AGAIN



OUTRO

Rhythm Guitar							
*distortion*								
e-------------------------------------------------------|	
B-------------------------------------------------------|	
G-------------------------------------------------------|	
D---3----------------5------------7---------------------|	
A---3-*HOLD*---------5-*HOLD*-----7-*HOLD*--------------|	
D---3----------------5------------7---------------------|	
Lead Guitar						|	
*Distortion*						|	
e-------------------------------------------------------|	
B-------------------------------------------------------|	
G-------------------------------------------------------|	
D--------7-----10-----7-----9-----7-*HOLD*--------------|	
A-------------------------------------------------------|	
D-------------------------------------------------------|

Tap to rate this tab
# A B C D E F G H I J K L M N O P Q R S T U V W X Y Z