Sommerset - Inside tab

-------------------------------------------------------------------------------
			     INSIDE - Sommerset
-------------------------------------------------------------------------------
Tabbed by: Schnitzel211
Email:

Tuning: Drop D


Intro (git 1)

e|-----------------------------------|-------------------------------|-------------------------|
B|-----------------------------------|-------------------------------|-------------------------|
G|-----------------------------------|----11-11-11-11----11-11-11-11-|----11-11-11-11----------|
D|--9p0-9p0-9p0-9p0-9p0-9p0-9p0-9p0--|----x--x--x--x-----x--x--x--x--|----x--x--x--x--0-0-0-0--|
A|--9p0-9p0-9p0-9p0-9p0-9p0-9p0-9p0--|----9--9--9--9-----9--9--9--9--|----9--9--9--9--0-0-0-0--|
D|--9p0-9p0-9p0-9p0-9p0-9p0-9p0-9p0--|-0--------------0--------------|-0--------------0-0-0-0--|

                                      ----------first time----------- -------second time--------


Chorus (both git)

e|---------------------------------------------------------------------------|
B|---------------------------------------------------------------------------|
G|---------------------------------------11-11-11-11----11-11-11-11----------|
D|--9p0-9p0-9p0-9p0-9p0-9p0-9p0-9p0------x--x--x--x-----x--x--x--x-----------|
A|--9p0-9p0-9p0-9p0-9p0-9p0-9p0-9p0------9--9--9--9-----9--9--9--9-----------|
D|--9p0-9p0-9p0-9p0-9p0-9p0-9p0-9p0---0--------------0-----------------------|



Vers (git 1)

e|---------------------------------------------------------------------------|
B|---------------------------------------------------------------------------|
G|---------------------------------------------------------------------------|
D|--9-9-9-9-9-9-9-79--5-5-5-5-5-5-5-07--9-9-9-9-9-9-9-79--4-4-4-44-5-5-5-50--|
A|--9-9-9-9-9-9-9-79--5-5-5-5-5-5-5-07--9-9-9-9-9-9-9-79--4-4-4-44-5-5-5-50--|
D|--9-9-9-9-9-9-9-79--5-5-5-5-5-5-5-07--9-9-9-9-9-9-9-79--4-4-4-44-5-5-5-50--|

e|---------------------------------------------------------------------------|
B|---------------------------------------------------------------------------|
G|---------------------------------------------------------------------------|
D|--9-9-9-9-9-9-9-79--5-5-5-5-5-5-5-07--9-9-9-9-9-9-9-79--4-4-4-4-5-5-5-5----|
A|--9-9-9-9-9-9-9-79--5-5-5-5-5-5-5-07--9-9-9-9-9-9-9-79--4-4-4-4-5-5-5-5----|
D|--9-9-9-9-9-9-9-79--5-5-5-5-5-5-5-07--9-9-9-9-9-9-9-79--4-4-4-4-5-5-5-5----|


Vers (git 2)

e|---------------------------------------------------------------------------|
B|---------------------------------------------------------------------------|
G|--5-5-5-5-5-5-5-25--------------------5-5-5-5-5-5-5-25---------------------|
D|--5-5-5-5-5-5-5-25--5-5-5-5-5-5-5-07--5-5-5-5-5-5-5-25--4-4-4-44-5-5-5-50--|
A|--3-3-3-3-3-3-3-03--5-5-5-5-5-5-5-07--3-3-3-3-3-3-3-03--4-4-4-44-5-5-5-50--|
D|--------------------5-5-5-5-5-5-5-07--------------------4-4-4-44-5-5-5-50--|

e|---------------------------------------------------------------------------|
B|---------------------------------------------------------------------------|
G|--5-5-5-5-5-5-5-25--------------------5-5-5-5-5-5-5-25---------------------|
D|--5-5-5-5-5-5-5-25--5-5-5-5-5-5-5-07--5-5-5-5-5-5-5-25---------------------|
A|--3-3-3-3-3-3-3-03--5-5-5-5-5-5-5-07--3-3-3-3-3-3-3-03--9-9-9-9-10-10-12-12|
D|--------------------5-5-5-5-5-5-5-07---------------------------------------|



Bridge (both git)

e|-------------------------------------------------------|--------------------------------|
B|-------------------------------------------------------|--------------------------------|
G|-------------------------------------------------------|--------------------------------|
D|--5-5-5-5--7-7-7-7--9-9-9-9--7-7-7-7--5-5-5-5--7-7-7-7-|-9p0-9p0-9p0-9p0-9p0-9p0-9p0--7-|
A|--5-5-5-5--7-7-7-7--9-9-9-9--7-7-7-7--5-5-5-5--7-7-7-7-|-9p0-9p0-9p0-9p0-9p0-9p0-9p0--7-|
D|--5-5-5-5--7-7-7-7--9-9-9-9--7-7-7-7--5-5-5-5--7-7-7-7-|-9p0-9p0-9p0-9p0-9p0-9p0-9p0--7-|

  ------------play this part again then go to-----------


------- this

Git 1

e|---------------------------------------------------------------------------|
B|---------------------------------------------------------------------------|
G|---------------------------------------------------------------------------|
D|--9~--------------9~--------------9~--------------9~------10--10-----------|
A|--9~--------------9~--------------9~--------------9~------10--10-----------|
D|--9~--------------9~--------------9~--------------9~------10--10-----------|

Git2

e|---------------------------------------------------------------------------|
B|---------------------------------------------------------------------------|
G|---------------------------------------------------------------------------|
D|--9p0-9p0-9p0-9p0-9p0-9p0-9p0-9p0-9p0-9p0-9p0-9p0-9p0-9p0-10--10-----------|
A|--9p0-9p0-9p0-9p0-9p0-9p0-9p0-9p0-9p0-9p0-9p0-9p0-9p0-9p0-10--10-----------|
D|--9p0-9p0-9p0-9p0-9p0-9p0-9p0-9p0-9p0-9p0-9p0-9p0-9p0-9p0-10--10-----------|



Interlud


Git 1


e|-----------------------------------|
B|-----------------------------------|
G|-----------------------------------|
D|--9p0-9p0-9p0-9p0-9p0-9p0-9p0-9p0--|
A|--9p0-9p0-9p0-9p0-9p0-9p0-9p0-9p0--|
D|--9p0-9p0-9p0-9p0-9p0-9p0-9p0-9p0--|


Git 2 (starts on 3 bar)

e|---------------------------------------------------------------------------|
B|---------------------------------------------------------------------------|
G|---------------------------------------------------------------------------|
D|---------------------------------------------------------------------------|
A|--9-9-9-9-9-9-9-9----------------------------------------------------------|
D|------------------9-9-9-9-9-9-9-9-10-10-10-10-4-4-4-4----------------------|


Outro (both git)

e|-------------------|
B|-------------------|
G|-------------------|
D|--0-0-0-0-0-0-0-0--|
A|--0-0-0-0-0-0-0-0--|
D|--0-0-0-0-0-0-0-0--|


End on

D|--9\--|
A|--9\--|
D|--9\--|



SONG ORDER:

Intro
Chorus 2x
Vers
Chorus 2x
Vers
Intro (end of first bar)
Chorus 4x
Bridge
Interlud
Chorus 3x + first bar
Outro





************************************

| /   slide up
| \   slide down
| h   hammer-on
| p   pull-off
| ~   vibrato
| +   harmonic
| x   Mute note
| b   Bend
| pb  Pre-bend
| br  Bend release
| pbr Pre-bend release
| brb Bend release bend

************************************
Tap to rate this tab
 
# A B C D E F G H I J K L M N O P Q R S T U V W X Y Z