Song name
# A B C D E F G H I J K L M N O P Q R S T U V W X Y Z

Son Ambulance - Astrud Astrud tab

Okay, since no one has ever decided to tab this out, I decided to give it a shot. Some caveats:

This is my first tab.
This is an incomplete tab.
This is most likely an incorrect tab.

THAT BEING SAID, this should get you in the right direction when playing this song. I 
tried to capture all those little nuisances he plays, so the tab look relatively 
asymmetrical. Corrections and additions are welcome.

Please help me save time by picking up where I left off! I will add more to this when I 
get around to it, but I was hoping the UG community could save me some time. Am I done 
with this prelude? I think so. Here's the tab.


e|---------------------------------------------------------------------------|
B|---------------------------------------------------------------------------|
G|-------------8-6-8-6----------------------------------8-6-8-6--------------|
D|---6---6-------6---6----6---6------7-7--7---6---6-------6---6-----6---6---6|
A|------(7)------7----7---------7-7--6-6--6----------7--------------------7--|
E|-0---7----7----------0----7---------------0---7--------(7)-(7)--0---7------|

e|---------------------------------------------------------------------------|
B|------------5----------------2---------------------------------------------|
G|---------6-------8---8--9-9--2--2--------------------------8-6-8-6---------|
D|-7-7--7--6----------------------2---2------(2)s6--6----6-------------------|
A|-6-6--6-4---4----6-6----7-7---0---0-0-0-0------7---------7-------7---------|
E|------------------------------------------------0----7-------7-------------|

e|---------------------------------------------------------------------------|
B|---5-----5-----------2-----------------------------------------------------|
G|---6-----6--8-8-9-8--2-------------6----6---8-6-8-6-----------6------------|
D|---6-----6--9-9-6-9--2--2-----2s6--6------------------6---6---6--7-7--7----|
A|-4---(4)4----6--7-6---0---0-0------7------7-7-7---7---------7-7--6-6--6----|
E|---------------------------------0---07-------7-7-7-0---7------------------|


This gets you to the vocals. The verse is like the intro, more or less, with some subtle 
differences. Obviously I haven't tabbed it out SO GET ON IT.

email me at etwilcox at gmail dot com
Tap to rate this tab
 
# A B C D E F G H I J K L M N O P Q R S T U V W X Y Z