Song name
# A B C D E F G H I J K L M N O P Q R S T U V W X Y Z

Son Et Lumiere - On The Rocks tab

Most of the tab should be correct, but of course I'm always open for suggestions on how to improve it.

Comments and/or corrections are welcome

Son Et Lumière - On The Rocks
enjoy ;)

Guitar starts ~ 0:13
Verse
e|---------------------------------------------|  \
B|---------------------------------------------|  |
G|----------x--9-7----7/12--12--12--12---------|  |
D|-9--9--9--x--9-7----7/12--12--12--12---------|  |
A|-9--9--9--x--7-5----5/10--10--10--10---------|  |
E|-7--7--7-------------------------------------|  |
                                                  | 
|----------------------------------------------|  |
|----------------------------------------------|  |
|-------------7--------------------------------|  |
|-7--7--7-----7-9----9--9--9--9\7--7-----------|  |
|-7--7--7-----5-9----9--9--9--9\7--7-----------|  |  x3
|-5--5--5-------7----7--7--7--7\5--5-----------|  /


|---------------------------------------------|
|---------------------------------------------|
|----------x--9-7----7/12--12--12--12---------|
|-9--9--9--x--9-7----7/12--12--12--12---------|
|-9--9--9--x--7-5----5/10--10--10--10---------|
|-7--7--7-------------------------------------|

|------------------------------------------|
|------------------------------------------|
|-------------7----------------------------|
|-7--7--7-----7-9----9--9--9--9\7--7\5--5~~|
|-7--7--7-----5-9----9--9--9--9\7--7\5--5~~|
|-5--5--5-------7----7--7--7--7\5--5\3--3~~|

Prechorus

|-----------------------------|
|-----------------------------|
|-----------------------------|
|------------5-5-5-5-5-5-5-x--|
|------------5-5-5-5-5-5-5-x--|
|------------3-3-3-3-3-3-3-x--|
(What is it… waiting for)

Chorus

|-----------------------------------------|     \
|-----------------------------------------|     |
|-----------------------------------------|     |
|-9-9-x-9---9-9-x-9---2-2-x-2---2-2-x-2---|     |
|-9-9-x-9---9-9-x-9---2-2-x-2---2-2-x-2---|     |
|-7-7-x-7---7-7-x-7---0-0-x-0---0-0-x-0---|     |
                                                |
|-------------------------------------------|   |
|-------------------------------------------|   |
|-----------9-9-x-9-------------------------|   |
|-5-5-x-5---9-9-x-9---9-9-x-9---9-9-x-9-9-9-|   |
|-5-5-x-5---7-7-x-7---9-9-x-9---9-9-x-9-9-9-|   |  x2
|-3-3-x-3-------------7-7-x-7---7-7-x-7-7-7-|   /


Then play

Verse
Prechorus
Chorus

Bridge
|----------------------------------| \
|----------------------------------| |
|------9--7\----------7------------| |
|-9----9--7\-----7----7--9\--------| | 
|-9----7--5\-----7----5--9\--------| |  x4
|-7--------------5-------7\--------| /

|-----------|
|-----------|
|--7--5-----|
|--7--5-----|
|--5--3-----|
|-----------|
Then play 

Prechorus
Chorus

http://www.sonetlumiere.de/
Tap to rate this tab
 
# A B C D E F G H I J K L M N O P Q R S T U V W X Y Z