Song name
# A B C D E F G H I J K L M N O P Q R S T U V W X Y Z

Son Of Dork - Were Not Alone tab

Tabbed by Lloyd Griffiths contact me at Son_of_dork_dork@hotmail.co.uk


Intro
e[---------------------------|
B[---------------------------|
G[-------7-----11-----9------|
D[-4-----7-x8--11-x8--9-x-8--|
A[-4-x8--5-----9------7------|
E[-2-------------------------|

e[---------------------------|
B[---------------------------|
G[-------7-----11-----9------|
D[-4-----7-x8--11-x8--9-x-8--|
A[-4-x8--5-----9------7------|
E[-2-------------------------|


Verse 1
  p.m....................................
e[--------------------------------------|
B[--------------------------------------|
G[--------7-------9--------11------7----|
D[-4------7-x16---9-x16----11-x8---7-x8-|
A[-4-x16--5-------7--------9-------5----|
E[-2------------------------------------|

  p.m....................................
e[--------------------------------------|
B[--------------------------------------|
G[--------7-------9--------11------7----|
D[-4------7-x16---9-x16----11-x8---7-x8-|
A[-4-x16--5-------7--------9-------5----|
E[-2------------------------------------|


Bridge

e[--------------------------------------|
B[--------------------------------------|
G[--------7-------9--------11------7----|
D[-4------7-x16---9-x16----11-x8---7-x8-|
A[-4-x16--5-------7--------9-------5----|
E[-2------------------------------------|

Chorus


e[---------------------------|---------------------------|
B[---------------------------|---------------------------|
G[--------7------11------9---|--------7------11------9---|
D[-4------7-x8---11-x8---9-x8|-4------7-x8---11-x8---9-x8|
A[-4-x8---5-------9------7---|-4-x8---5-------9------7---|
E[-2-------------------------|-2-------------------------|

e[------------|------------|--------------------|
B[------------|------------|--------------------|
G[--------7---|--------9---|---------7-----9----|
D[--4-----7-x8|--4-----9-x8|--4------7-x8--9-x8-|
A[--4-x8--5---|--4-x8--7---|--4-x16--5-----7----|
E[--2---------|--2---------|--2-----------------|

e[-------------------|
B[-------------------|
G[-------------------|
D[-4-4-4-4----4--4---|
A[-4-4-4-4----4--4---|
E[-2-2-2-2----2--2---|


Verse 2

 p.m....................................
e[--------------------------------------|
B[--------------------------------------|
G[--------7-------9--------11------7----|
D[-4------7-x16---9-x16----11-x8---7-x8-|
A[-4-x16--5-------7--------9-------5----|
E[-2------------------------------------|

  p.m....................................
e[--------------------------------------|
B[--------------------------------------|
G[--------7-------9--------11------7----|
D[-4------7-x16---9-x16----11-x8---7-x8-|
A[-4x16---5-------7--------9-------5----|
E[-2------------------------------------|

Bridge

e[--------------------------------------|
B[--------------------------------------|
G[--------7-------9--------11------7----|
D[-4------7-x16---9-x16----11-x8---7-x8-|
A[-4-x16--5-------7--------9-------5----|
E[-2------------------------------------|


Chorus

e[---------------------------|---------------------------|
B[---------------------------|---------------------------|
G[--------7------11------9---|--------7------11------9---|
D[-4------7-x8---11-x8---9-x8|-4------7-x8---11-x8---9-x8|
A[-4-x8---5-------9------7---|-4-x8---5-------9------7---|
E[-2-------------------------|-2-------------------------|

e[------------|------------|--------------------|
B[------------|------------|--------------------|
G[--------7---|--------9---|---------7-----9----|
D[--4-----7-x8|--4-----9-x8|--4------7-x8--9-x8-|
A[--4-x8--5---|--4-x8--7---|--4-x16--5-----7----|
E[--2---------|--2---------|--2-----------------|

e[-------------------|
B[-------------------|
G[------------7--7---|
D[-4-4-4-4----7--7---|
A[-4-4-4-4----5--5---|
E[-2-2-2-2-----------|

Solo: I am not 100% about this it sounds correct but no-one else has done it yet so i 
i would have a go! Play in overdrive!

e[-----------------------|-------------------------------|
B[--7-9-10---------------|-------------------------------|
G[---------6-9-9-7-7-6---|------------4-4-6-7--7-6-------|
D[--4-6-7--------------7-|-7--6-6-7-7--------------7---4-|
A[-----------------------|---------------------------7---|
E[-----------------------|-------------------------------|


e[-----------------------|-------------------------------|
B[--7-9-10---------------|-------------------------------|
G[---------6-9-9-7-7-6---|------------4-4-6-7--7-6---6-9-|
D[--4-6-7--------------7-|-7--6-6-7-7--------------7-----|
A[-----------------------|-------------------------------|
E[-----------------------|-------------------------------|

Brigde

e[-----------------------------------|
B[-----------------------------------|
G[-------------------------9-----7---|
D[--4-X-X-X--X-X-X--X-X-X--9-x8--7-x8|
A[--4-X-X-X--X-X-X--X-X-X--7-----5---|
E[--2-X-X-X--X-X-X--X-X-X------------|

Chorus


e[---------------------------|---------------------------|
B[---------------------------|---------------------------|
G[--------7------11------9---|--------7------11------9---|
D[-4------7-x8---11-x8---9-x8|-4------7-x8---11-x8---9-x8|
A[-4-x8---5-------9------7---|-4-x8---5-------9------7---|
E[-2-------------------------|-2-------------------------|

e[------------|------------|--------------------|
B[------------|------------|--------------------|
G[--------7---|--------9---|---------7-----9----|
D[--4-----7-x8|--4-----9-x8|--4------7-x8--9-x8-|
A[--4-x8--5---|--4-x8--7---|--4-x16--5-----7----|
E[--2---------|--2---------|--2-----------------|


Ending

e[-------|------------------|
B[-------|------------------|
G[-------|----------7-7-7-7-|
D[-4-----|-4-4-4-4--7-7-7-7-|
A[-4-x80-|-4-4-4-4--5-5-5-5-|
E[-2-----|-2-2-2-2----------|
Tap to rate this tab
 
# A B C D E F G H I J K L M N O P Q R S T U V W X Y Z