Song name
# A B C D E F G H I J K L M N O P Q R S T U V W X Y Z

Son Of Dork - Merry Christmas Everyone tab

Help us improve GuitareTab! Take a short survey!
Intro
Eb[---------------------------------------------------------|
Ab[--12-10-12p10p8-8-10-12-13-15-12-10-12-13-12h13p12h13p12-|
Db[---------------------------------------------------------|
Gb[---------------------------------------------------------|
Bb[---------------------------------------------------------|
Eb[---------------------------------------------------------|

Verse 1: Guitar 1(James) & Guitar 3(Chris)

Eb[-----------------------------------------------------------------|
Ab[-----------------------------------------------------------------|
Db[------------------5-5-5-5-5-5-5-5-------------5-5----------------|
Gb[--5-5-5-5-5-5-2-2-5-5-5-5-5-5-5-5-5-5-5-5-5-5-5-5-5-5-5-5-5-5-5-5|
Bb[--5-5-5-5-5-5-2-2-3-3-3-3-3-3-3-3-5-5-5-5-5-5-3-3-5-5-5-5-5-5-5-5|
Eb[--3-3-3-3-3-3-0-0-----------------3-3-3-3-3-3-----3-3-3-3-3-3-3-3|
    Snow Is Falling........

Eb[---------------------------------|-----------------------------------|
Ab[---------------------------------|-----------------------------------|
Db[-7-7-7-7-7-7-----5-5-5-5-5-5-5-5-|------------------7----------------|
Gb[-7-7-7-7-7-7-2-2-5-5-5-5-5-5-5-5-|------5-5-5-5-5-5-7-5--------5-5---|
Bb[-5-5-5-5-5-5-2-2-3-3-3-3-3-3-3-3-|------5-5-5-5-5-5-5-5--------5-5---|
Eb[-------------0-0-----------------|------3-3-3-3-3-3---3--------3-3---|
It's The Season..... (start on season)  Merry Christmas Everyone


Verse 1: Guitar 2 (Dave)

Eb[---------------------------------------------------------------|
Ab[---------------------------------------------------------------|
Db[---------------------------------------------------------------|
Gb[---------------------------------------------------------------|
Bb[---------------------------------------------------------------|
Eb[---------------------------------------------------------------|
    Snow Is Falling........

Eb[---------------------------------------------------------------|
Ab[---------------------------------------------------------------|
Db[-12--11--9--9-11--12--14--16--12--11--12--14--12---------------|
Gb[--x---x--x--x--x---x---x---x---x---x---x---x---x---------------|
Bb[-10---9--7--7--9--10--12--14--10---9--10--12--10---------------|
Eb[---------------------------------------------------------------|
   It's The Season..... (start on season)  Merry Christmas Everyone


    Verse 2: Guitar 1 (James)

Eb[-----------------------------------------------------------------|
Ab[-----------------------------------------------------------------|
Db[------------------5-5-5-5-5-5-5-5-------------5-5----------------|
Gb[--5-5-5-5-5-5-2-2-5-5-5-5-5-5-5-5-5-5-5-5-5-5-5-5-5-5-5-5-5-5-5-5|
Bb[--5-5-5-5-5-5-2-2-3-3-3-3-3-3-3-3-5-5-5-5-5-5-3-3-5-5-5-5-5-5-5-5|
Eb[--3-3-3-3-3-3-0-0-----------------3-3-3-3-3-3-----3-3-3-3-3-3-3-3|
    Time For Parties........

Eb[---------------------------------|--------------------------------------|
Ab[---------------------------------|----------------------------------8---|
Db[-7-7-7-7-7-7-----5-5-5-5-5-5-5-5-|------------------7-------------7-9---|
Gb[-7-7-7-7-7-7-2-2-5-5-5-5-5-5-5-5-|------5-5-5-5-5-5-7-5-5-5-5---5-7-9---|
Bb[-5-5-5-5-5-5-2-2-3-3-3-3-3-3-3-3-|------5-5-5-5-5-5-5-5-5-5-5---5-5-7---|
Eb[-------------0-0-----------------|------3-3-3-3-3-3---3-3-3-3---3-------|
    Time for presents...                  Time for singing christmas songs


      Verse 2: Guitar 2(Dave)

Eb[---------------------------------------------------------------|
Ab[---------------------------------------------------------------|
Db[---------------------------------------------------------------|
Gb[---------------------------------------------------------------|
Bb[---------------------------------------------------------------|
Eb[---------------------------------------------------------------|
    Time For Parties........


Play This but add in more strums listen to the track for the timing
Eb[---------------------------------------------------------------|
Ab[---------------------------------------------------------------|
Db[-12--11--9--9-11--12--14--16--12--11--12--14--12---------------|
Gb[--x---x--x--x--x---x---x---x---x---x---x---x---x---------------|
Bb[-10---9--7--7--9--10--12--14--10---9--10--12--10---------------|
Eb[---------------------------------------------------------------|
   Time for presents...                  Time for singing christmas songs


Verse 2: Guitar 3(Chris)

Eb[--3-3-3-3-3-3--0-0--8-8-8-8-8-8--3-3-3-3-3-3--8-8--3-3-3-3-3-3-3-3|
Ab[--3-3-3-3-3-3--0-0--8-8-8-8-8-8--3-3-3-3-3-3--8-8--3-3-3-3-3-3-3-3|
Db[------------------------------------------------------------------|
Gb[------------------------------------------------------------------|
Bb[------------------------------------------------------------------|
Eb[------------------------------------------------------------------|
    Time For Parties........


Eb[--3-3-3-3-3-3--0-0--8-8-8-8-8-8--3-3-3-3-3-3--8-8--3-3-3-3-3-3-3-3|
Ab[--3-3-3-3-3-3--0-0--8-8-8-8-8-8--3-3-3-3-3-3--8-8--3-3-3-3-3-3-3-3|
Db[------------------------------------------------------------------|
Gb[------------------------------------------------------------------|
Bb[------------------------------------------------------------------|
Eb[------------------------------------------------------------------|
   Time for presents...                  Time for singing christmas songs


Chorus: Guitar 1 & 3(James and Chris)

Eb[---------------------------------------------------------------|
Ab[--8-8-8-8-8-8--------------------------------------------------|
Db[--9-9-9-9-9-9--5-5-5-5-5-5---------------7-7-7-7-7-7-----------|
Gb[--9-9-9-9-9-9--5-5-5-5-5-5--5-5-5-5-5-5--7-7-7-7-7-7-----------|
Bb[--7-7-7-7-7-7--3-3-3-3-3-3--5-5-5-5-5-5--5-5-5-5-5-5-----------|
Eb[----------------------------3-3-3-3-3-3------------------------|
     We're Gonna Have...

Eb[--------------------------------------------------------------------|
Ab[--8-8-8-8-8-8-------------------------------------------------------|
Db[--9-9-9-9-9-9--5-5-5-5-5-5---------------------------7-7-7-7-7------|
Gb[--9-9-9-9-9-9--5-5-5-5-5-5--5-5-5-5-5-5-5-5-5-5-5-5--7-7-7-7-7------|
Bb[--7-7-7-7-7-7--3-3-3-3-3-3--5-5-5-5-5-5-5-5-5-5-5-5--5-5-5-5-5------|
Eb[----------------------------3-3-3-3-3-3-3-3-3-3-3-3-----------------|
     I'm Gonna Find That Girl....

Chorus: Guitar 3 (Dave)

Eb[------12--------------------------------12----------------------|
Ab[--7-8-------------------------------7-8----8-7h8p7--------------|
Db[---------------------------------------------------7------------|
Gb[----------------------------------------------------------------|
Bb[----------------------------------------------------------------|
Eb[----------------------------------------------------------------|
    We're Gonna Have...

Eb[------10----------------------------------------------------------|
Ab[--7-8------------------------------8-7-------8-7------------------|
Db[---------------------------------------7---------7----------------|
Gb[------------------------------------------------------------------|
Bb[------------------------------------------------------------------|
Eb[------------------------------------------------------------------|
    I'm Gonna Find That Girl....


Verse 3: Guitar 1(James) & Guitar 3(Chris)

Eb[-----------------------------------------------------------------|
Ab[-----------------------------------------------------------------|
Db[------------------5-5-5-5-5-5-5-5-------------5-5----------------|
Gb[--5-5-5-5-5-5-2-2-5-5-5-5-5-5-5-5-5-5-5-5-5-5-5-5-5-5-5-5-5-5-5-5|
Bb[--5-5-5-5-5-5-2-2-3-3-3-3-3-3-3-3-5-5-5-5-5-5-3-3-5-5-5-5-5-5-5-5|
Eb[--3-3-3-3-3-3-0-0-----------------3-3-3-3-3-3-----3-3-3-3-3-3-3-3|
    Room Is Swaying

Eb[---------------------------------|-----------------------------------|
Ab[---------------------------------|-----------------------------------|
Db[-7-7-7-7-7-7-----5-5-5-5-5-5-5-5-|------------------7----------------|
Gb[-7-7-7-7-7-7-2-2-5-5-5-5-5-5-5-5-|------5-5-5-5-5-5-7-5--------5-5---|
Bb[-5-5-5-5-5-5-2-2-3-3-3-3-3-3-3-3-|------5-5-5-5-5-5-5-5--------5-5---|
Eb[-------------0-0-----------------|------3-3-3-3-3-3---3--------3-3---|
All I wish that .....                    Merry Christmas Everyone

Chris Solo (Can't Figure Out)

Chorus: Guitar 1 & 3(James and Chris)

Eb[---------------------------------------------------------------|
Ab[--8-8-8-8-8-8--------------------------------------------------|
Db[--9-9-9-9-9-9--5-5-5-5-5-5---------------7-7-7-7-7-7-----------|
Gb[--9-9-9-9-9-9--5-5-5-5-5-5--5-5-5-5-5-5--7-7-7-7-7-7-----------|
Bb[--7-7-7-7-7-7--3-3-3-3-3-3--5-5-5-5-5-5--5-5-5-5-5-5-----------|
Eb[----------------------------3-3-3-3-3-3------------------------|
     We're Gonna Have...

Eb[--------------------------------------------------------------------|
Ab[--8-8-8-8-8-8-------------------------------------------------------|
Db[--9-9-9-9-9-9--5-5-5-5-5-5---------------------------7-7-7-7-7------|
Gb[--9-9-9-9-9-9--5-5-5-5-5-5--5-5-5-5-5-5-5-5-5-5-5-5--7-7-7-7-7------|
Bb[--7-7-7-7-7-7--3-3-3-3-3-3--5-5-5-5-5-5-5-5-5-5-5-5--5-5-5-5-5------|
Eb[----------------------------3-3-3-3-3-3-3-3-3-3-3-3-----------------|
     I'm Gonna Find That Girl....

Chorus: Guitar 3 (Dave)

Eb[------12--------------------------------12----------------------|
Ab[--7-8-------------------------------7-8----8-7h8p7--------------|
Db[---------------------------------------------------7------------|
Gb[----------------------------------------------------------------|
Bb[----------------------------------------------------------------|
Eb[----------------------------------------------------------------|
    We're Gonna Have...

Eb[------10----------------------------------------------------------|
Ab[--7-8------------------------------8-7-------8-7------------------|
Db[---------------------------------------7---------7----------------|
Gb[------------------------------------------------------------------|
Bb[------------------------------------------------------------------|
Eb[------------------------------------------------------------------|
    I'm Gonna Find That Girl....

Verse 4: Guitar 1(James) & Guitar 3(Chris)

Eb[-------------------------------------------------------------------|
Ab[-------------------------------------------------------------------|
Db[------------------7-7-7-7-7-7-7-7-----------7-7--------------------|
Gb[--7-7-7-7-7-7-4-4-7-7-7-7-7-7-7-7-7-7-7-7-7-7-7-7-7-7-7-7-7-7-7----|
Bb[--7-7-7-7-7-7-4-4-5-5-5-5-5-5-5-5-7-7-7-7-7-5-5-7-7-7-7-7-7-7-7----|
Eb[--5-5-5-5-5-5-2-2-----------------5-5-5-5-5-----5-5-5-5-5-5-5-5----|
    Snow Is Falling........

Eb[---------------------------------|-----------------------------------|
Ab[---------------------------------|-----------------------------------|
Db[-9-9-9-9-9-9-----7-7-7-7-7-7-7-7-|------------------9----------------|
Gb[-9-9-9-9-9-9-4-4-7-7-7-7-7-7-7-7-|------7-7-7-7-7-7-9-7----X3--------|
Bb[-7-7-7-7-7-7-4-4-5-5-5-5-5-5-5-5-|------7-7-7-7-7-7-7-7--------------|
Eb[-------------2-2-----------------|------5-5-5-5-5-5---5--------------|
It's The Season..... (start on season)  Merry Christmas Everyone

Outro: Guitar 2 & 3 (Chris and Dave)

Eb[-----------------------------------------------------------------|
Ab[--14-12--14p12p10--10-12-14-15-17-14-12-14-15-14h15h14h15h14-----|
Db[-------------------------------------------------------------X2--|
Gb[-----------------------------------------------------------------|
Bb[-----------------------------------------------------------------|
Eb[-----------------------------------------------------------------|
Related for Merry Christmas Everyone tab