Song name
# A B C D E F G H I J K L M N O P Q R S T U V W X Y Z

Son Of Dork - Sick tab

This is my first tab - I love this solo it comes at the end of a slow song!
I've kind of split it up into sections - it sounds fast but it's actually not that 
if you just listen to how the song goes :) let me know what you think :)

3:05
E----------------------------------------15---------------------------------|
B-15^-15-13-15--------------13-15-13--15^-----------------------------------|
G---------------14---14\X/14------------------------------------------------|
D---------------------------------------------------------------------------|
A---------------------------------------------------------------------------|
E---------------------------------------------------------------------------|

This bit sounds fast - the notes are evenly spaced though - play it smoothly
E-15------------------------------------------------------------------------|
B-----17-15-13-15-13-12-13-12----12-----------------------------------------|
G-----------------------------10----14-12-14-12----12-----------------------|
D-----------------------------------------------14----14-12-10-12-10-9-10-9-|
A---------------------------------------------------------------------------|
E---------------------------------------------------------------------------|

--------------|
--------------|
--------------|
-7-9-7-5------|
--------------|
--------------|

This bit is played a bit more unevenly & it was actually harder for me to get the hang 
this bit then the fast bit
E----------------------------------------15---------------------------------|
B-------------------------------------13----15-13--------13-----------------|
G-------------------------------12-14-------------12-14-----14-12-----------|
D-----------------5-7-10-12-12^-----------------------------------14-12-10--|
A-5-7-7-5-3-0-3-5-7---------------------------------------------------------|
E---------------------------------------------------------------------------|

---------------------------------------------------------------------|
---------------------------------------------------------------------|
---------------------------------------------------------------------|
-12-10----10-12-12^^--12-10(12)-10^---(12)-10----10------------------|
-------12-------------------------------------12----10---------------|
-------------------------------------------------------12-10-8-12\0--|
Tap to rate this tab
 
# A B C D E F G H I J K L M N O P Q R S T U V W X Y Z