Guitaretab - guitar tabs
Song name
# A B C D E F G H I J K L M N O P Q R S T U V W X Y Z

Son Of Dork - Eddies Song tab

My attempt at Son of Dorks new single :)

!This song is played in drop D!

I'm pretty sure most of it is correct except for the bridge.
Any help or suggestions email me at:

matt_barry182@msn.com

Thanks for checking this out :)

  Intro Guitar 1
E|------------------------------------|
B|------------------------------------|
G|---33-------------8-10-12-14-15\----|
D|---33---55--\3----x-x--x-x-x-----|
A|---11---55--\3----6--8-10-12-13\----|
D|--------55--\3----------------------|

  Intro Guitar 2 (Clean)
E|--10-------10-------10----10-------10-------10-----|
B|-----11-------11-------------11-------11-----------|
G|--------10-------10----10-------10-------10----10--|
D|---------------------------------------------------|
A|---------------------------------------------------|
D|---------------------------------------------------|

E|--11-------11-------11----11-------11-------11-----|
B|-----11-------11-------------11-------11-----------|
G|--------10-------10----10-------10-------10----10--|
D|---------------------------------------------------|
A|---------------------------------------------------|
D|---------------------------------------------------|

E|--10-------10-------10----11-------10--------------|
B|-----11-------11-------------11-------11----13-----|
G|--------10-------10----10-------10-------10----10--|
D|---------------------------------------------------|
A|---------------------------------------------------|
D|---------------------------------------------------|

E|--11-------11-------11----11-------11-------11-----|
B|-----11-------11-------------11-------11-----------|
G|--------10-------10----10-------10-------10----10--|
D|---------------------------------------------------|
A|---------------------------------------------------|
D|---------------------------------------------------|

  .................................................................

  Intro Part 2
E|---------------------------------------------------|
B|---------------------------------------------------|
G|--10-3-7-5-3---------8-10-12-14-15\----------------|
D|---x-x-x-x-x(x3)----x--x--x--x--x-----------------|
A|---8-1-5-3-1---------6--8-10-12-13\----------------|
D|---------------------------------------------------|

.....................................................................

  Verse Guitar 1
E|----------------------------------------------------|
B|----------------------------------------------------|
G|-------------------8-10-12-14-15--------------------|
D|-3-----------(x3)--x--x--x--x--x--------------------|
A|-1--5--3--1--------6--8-10-12-13--------------------|
D|----5--3--1-----------------------------------------|
  Pm.........

  Verse Guitar 2 (Comes in half way through)
E|--------------------------------------------------------------------|
B|--------------------------------------------------------------------|
G|-----3---2---3---5---3---2---3-------3---2---3---5---3---2---3------|
D|--------------------------------------------------------------------|
A|--11---1---1---1---1---1---1---1------------------------------------|
D|----------------------------------55---5---5---5---5---5---5---5----|
  Pm..   .   .   .   .   .   .   .  ..   .   .   .   .   .   .   .


E|----------------------------------------------------------|
B|----------------------------------------------------------|
G|-----3---2---3---5---3---2---3-----8-10-11-13-15----------|
D|-----------------------------------x--x--x--x--x----------|
A|-----------------------------------6--8--9-11-13----------|
D|--33---3---3---3---3---3---3---3--------------------------|
  Pm..   .   .   .   .   .   .   .

.....................................................................

  Chorus Guitar 1
E|------------------------------------|
B|------------------------------------|
G|--3-----5-7-5-3-----7-5-3-----------| x2
D|--3--5--x-x-x-x--3--x-x-x--1--------|
A|--1--5--3-5-3-1--3--5-3-1--1--------|
D|-----5-----------3---------1--------|

  Chorus Guitar 2
E|---------------------------------------|
B|---------------------------------------|
G|---7-------10-8-7-5-----5/7\5-3---11---| x2
D|---x--------x-x-x-x-----x-x-x-x----x---|
A|---5--------8-6-5-3-----3/5\3-1----9---|
D|---------------------------------------|

.....................................................................
[ Tab from: http://www.guitaretab.com/s/son-of-dork/66789.html ]
   Pre Verse
E|-------------------------------|
B|-------------------------------|
G|-------------------------------| x2
D|-------------------------------|
A|--8--------6-6--8--------------|
D|--8--------6-6--8--------------|
  Pm........      .........

.....................................................................

Repeat verse as before but with intro (clean) in the first half.

Repeat Chorus

.....................................................................



  Bridge Part 1 Guitar 1
E|---------------------------------------|
B|---------------------------------------|
G|--10-3-7-5-3---10-3-7-8-10-------------|
D|---x-x-x-x-x----x-x-x-x--x(x3)--------|
A|---8-1-5-3-1----6-1-5-6--8-------------|
D|---------------------------------------|


E|------------------------------|
B|------------------------------|
G|--10-8-7-5-3-5---6--8--10-----|
D|---x-x-x-x-x-x---x--x---x-----|
A|---8-6-5-3-1-3---4--6---8-----|
D|------------------------------|

  Bridge Part 1 Guitar 2
E|--------------------------------------------------------------------|
B|--------------------------------------------------------------------|
G|-----3---2---3---5---3---2---3-------3---2---3---5---3---2---3------|
D|--------------------------------------------------------------------|
A|--------------------------------------------------------------------|
D|--55---5---5---5---5---5---5---5--33---3---3---3---3---3---3---3----|
  Pm..   .   .   .   .   .   .   .  ..   .   .   .   .   .   .   .


E|-------------------------------------------------------------------|
B|-------------------------------------------------------------------|
G|-----3---2---3---5---3---2---3-------3---2---3---5---3---2---3-----|
D|-------------------------------------------------------------------|
A|--11---1---1---1---1---1---1---1-----------------------------------|
D|----------------------------------33---3---3---3---3---3---3---3---|
  Pm..   .   .   .   .   .   .   .  ..   .   .   .   .   .   .   .


E|-------------------------------------------------------------------|
B|-------------------------------------------------------------------|
G|-----3---2---3---5---3---2---3-------3---2---3---5---3---2---3-----|
D|-------------------------------------------------------------------|
A|-------------------------------------------------------------------|
D|--55---5---5---5---5---5---5---5--33---3---3---3---3---3---3---3---|
  Pm..   .   .   .   .   .   .   .  ..   .   .   .   .   .   .   .


E|----------------------------------|
B|----------------------------------|
G|-----3---2---3---5---3---2---3----|
D|----------------------------------|
A|--11---1---1---1---1---1---1---1--|
D|----------------------------------|

.....................................................................

  Bridge Part 2 (Slow part) Clean Guitar (Not sure about this)
E|----------------------------------------------------------|
B|----------------------------------------------------------|
G|------3---3-----------3-5-3------3---3-----------3-5-3----|
D|----3---3---3---3---3----------3---3---3---3---3----------|
A|--1-----------1---1---------------------------------------|
D|-----------------------------5-----------5---5------------|


E|----------------------------------------------------------|
B|----------------------------------------------------------|
G|------3---3-----------3-5-3------3---3-----------3-5-3----|
D|----3---3---3---3---3----------3---3---3---3---3----------|
A|----------------------------------------------------------|
D|--3-----------3---3----------1-----------1---1------------|

Whole thing x3

  Bridge part 2 Guitar 2 (also clean  starts when James comes in)
E|--------------------------------------------------|
B|--------------------------------------------------|
G|--10-3-7-5-3-(x7)--------8-10-11-13-15/-----------|
D|-------------------------x--x--x--x--x------------|
A|-------------------------6--8--9-11-13\-----------|
D|--------------------------------------------------|
                           Distortion Comes in.

.....................................................................

Repeat chorus twice

.....................................................................

The ending is palm muting: (you can work out the rhythm)

---
---
---
-1-
-1-
-1-

And thats basically it...
Related for Eddies Song tab