Song name
# A B C D E F G H I J K L M N O P Q R S T U V W X Y Z

Son Of Dork - Holly Im The One tab

In my chords thingy I put F#h it's just F#
Don't know why there's a h...
Sozzzzzzz
Any questions, email me at kimbuhlee.banilla.18@hotmail.com

INTRO:
e--22--44----------------------------------|
B--44--44----------------------------------|
G--44--44---1111---------------------------|
D--44--66---2222---------------------------|
A--22--66---2222---------------------------|
E--22--44----------------------------------|  x2

VERSE:
e--22--44----------------------------------|
B--44--44----------------------------------|
G--44--44---1111---------------------------|
D--44--66---2222---------------------------|
A--22--66---2222---------------------------|
E--22--44----------------------------------| x3

I'm hiding in a bush outside your window
I'm feeling sick and numb
Fed all my best lines to my best friend
So he could be the one
But I'm jerk because it worked
And I've just realised what I've done

PRE-CHORUS:
e--44---44--------------------------------|
B--55---44--------------------------------|
G--66---44--------------------------------|
D--66---66--------------------------------|
A--44---66--------------------------------|
E--44---44--------------------------------| x2
 
Guess I'll never be the guy to get the girl
Set it up so that he could rock your world
Promise me when you scream you fake it

CHORUS:
e--22--44----------------------------------|
B--44--44----------------------------------|
G--44--44---1111---------------------------|
D--44--66---2222---------------------------|
A--22--66---2222---------------------------|
E--22--44----------------------------------| x2

Holly, I'm the one you should be dating
Seeing you with him is so frustrating

e--22--44----------------------------------|
B--44--44----------------------------------|
G--44--44----------------------------------|
D--44--66----------------------------------|
A--22--66----------------------------------|
E--22--44----------------------------------|
 
I taught him everything he knows

e--2----1----4----2-----------------------|
B--4----3----4----2-----------------------|
G--4----3----4----3-----------------------|
D--4----3----6----4-----------------------|
A--2----3----6----4-----------------------|
E--2----1----4----2-----------------------|

I know that I'm dumb

e-------2---------------------------------|
B-------2---------------------------------|
G--1----3---------------------------------|
D--2----4---------------------------------|
A--2----4---------------------------------|
E-------2---------------------------------|

But Holly ... I'm the one

VERSE:
e--22--44----------------------------------|
B--44--44----------------------------------|
G--44--44---1111---------------------------|
D--44--66---2222---------------------------|
A--22--66---2222---------------------------|
E--22--44----------------------------------| x3

So maybe I should just go home now
And let you have your fun
It doesn't make it any easier
I live across the street but one
But if that clown lets you down
Holly, you know here to come

PRE-CHORUS:
e--44---44--------------------------------|
B--55---44--------------------------------|
G--66---44--------------------------------|
D--66---66--------------------------------|
A--44---66--------------------------------|
E--44---44--------------------------------| x2

Guess I'll never be the guy to get the girl
Set it up so that he could rock your world
But I'm not, so I've got to face it

CHORUS:
e--22--44----------------------------------|
B--44--44----------------------------------|
G--44--44---1111---------------------------|
D--44--66---2222---------------------------|
A--22--66---2222---------------------------|
E--22--44----------------------------------| x2

Holly, I'm the one you should be dating
Seeing you with him is so frustrating

e--22--44----------------------------------|
B--44--44----------------------------------|
G--44--44----------------------------------|
D--44--66----------------------------------|
A--22--66----------------------------------|
E--22--44----------------------------------| 
I taught him everything he knows

e--2----1----4----2-----------------------|
B--4----3----4----2-----------------------|
G--4----3----4----3-----------------------|
D--4----3----6----4-----------------------|
A--2----3----6----4-----------------------|
E--2----1----4----2-----------------------|

You fell for ever single line I gave him
I know that I'm dumb

e-------2---------------------------------|
B-------2---------------------------------|
G--1----3---------------------------------|
D--2----4---------------------------------|
A--2----4---------------------------------|
E-------2---------------------------------|

But Holly ... I'm the one

INTERLUDE:


e-------22---33---00----------------------|
B-------22---33---33----------------------|
G--11---33---33---33----------------------|
D--22---44---55---33----------------------|
A--22---44---55---11----------------------|
E-------22---33---00----------------------| x3

Who can't believe you're at my door
Cos he confessed that he'd been cheating
Suddenly a chance for me to tell the secret I'd been keeping

e-------2---------------------------------|
B-------2---------------------------------|
G--1----3---------------------------------|
D--2----4---------------------------------|
A--2----4---------------------------------|
E-------2---------------------------------|

I am the one, I am the one, I am the one, I am the one, I am the one, I am the oneeeeeee

VERSE:
e--22--44----------------------------------|
B--44--44----------------------------------|
G--44--44---1111---------------------------|
D--44--66---2222---------------------------|
A--22--66---2222---------------------------|
E--22--44----------------------------------| x3

You said you valued his integrity
And honesty is rare
He swore to you he'd never cheat again
He cried and said he cared
Well, he's a jerk because it worked

CHORUS:
e--22--44----------------------------------|
B--44--44----------------------------------|
G--44--44---1111---------------------------|
D--44--66---2222---------------------------|
A--22--66---2222---------------------------|
E--22--44----------------------------------| x2

Holly, I'm the one you should be dating
Seeing you with him is so frustrating

e--22--44----------------------------------|
B--44--44----------------------------------|
G--44--44----------------------------------|
D--44--66----------------------------------|
A--22--66----------------------------------|
E--22--44----------------------------------| 

I taught him everything he knows

e--2----1----4----2-----------------------|
B--4----3----4----2-----------------------|
G--4----3----4----3-----------------------|
D--4----3----6----4-----------------------|
A--2----3----6----4-----------------------|
E--2----1----4----2-----------------------|

He used to be my best friend now I hate him
And it sucks that he won
Cos he's a dick and you're amazing

e-------2---------------------------------|
B-------2---------------------------------|
G--1----3---------------------------------|
D--2----4---------------------------------|
A--2----4---------------------------------|
E-------2---------------------------------|

I know that I'm dumb
But Holly ... I'm the one
Tap to rate this tab
# A B C D E F G H I J K L M N O P Q R S T U V W X Y Z