Song name
# A B C D E F G H I J K L M N O P Q R S T U V W X Y Z

Son Of Sam - In The Hills tab

-------------------------------------------------------------------------------
			     In The Hills- Son Of Sam
-------------------------------------------------------------------------------
Tabbed by: L.A.M.F. 77'


Tuning: Standard

e|-------------------------------------------------------------------------|
B|-------------------------------------------------------------------------|
G|-------------------------------------------------------------------------|
D|-------------------------------------------------------------------------|
A|----5----5----5----4----4----4----6----6----6----------------------------|
E|----3----3----3----3----3----3----3----3----3----------------------------|

e|-------------------------------------------------------------------------|
B|-------------------------------------------------------------------------|
G|-------------------------------------------------------------------------|
D|------------------------3----3----3----3---------------------------------|
A|----5----5----5----5----1----1----1----1-----3----3----3----3------------|
E|----3----3----3----3-------------------------1----1----1----1------------|

e|-------------------------------------------------------------------------|
B|-------------------------------------------------------------------------|
G|-------------------------------------------------------------------------|
D|--5--5--5--8--8--8------------------------5--5--5--8--8--8--7--7--7------|
A|--3--3--3--6--6--6----5--5--5--8--8--8----3--3--3--6--6--6--5--5--5------|
E|----------------------3--3--3--6--6--6-----------------------------------|

Tap to rate this tab
# A B C D E F G H I J K L M N O P Q R S T U V W X Y Z