Song name
# A B C D E F G H I J K L M N O P Q R S T U V W X Y Z

Son Of Sam - Of Man tab

Help us improve GuitareTab! Take a short survey!
------------------------------------------------------------------------------- 
OF MAN - Son Of Same 
------------------------------------------------------------------------------- 

submitted by: brandon at mr_sexy64@hotmail.com. 

I know this isn't the whole song, but it is most of it. I nailed down the 
intro and verse. I dropped it down to D and it was a lot easier to play. But 
i included both drop D and the E part as well. 

Intro/Verse/Almost whole song 
e|---------------------------------------------------------------------------| 
B|---------------------------------------------------------------------------| 
G|---------------------------------------------------------------------------| 
D|5-5-5-5-6-6-6-6-8-8-8-8--8-6-5--5-5-5-5-6-6-6-6-3-3-3-3--6-5-3-------------| 
A|5-5-5-5-6-6-6-6-8-8-8-8--8-6-5--5-5-5-5-6-6-6-6-3-3-3-3--6-5-3-------------| 
D|5-5-5-5-6-6-6-6-8-8-8-8--8-6-5--5-5-5-5-6-6-6-6-3-3-3-3--6-5-3-------------| 

e|---------------------------------------------------------------------------| 
B|---------------------------------------------------------------------------| 
G|---------------------------------------------------------------------------| 
D|5-5-5-5-6-6-6-6-8-8-8-8--8-6-5--5-5-5-5-6-6-6-6-3-3-3-3--6-5-3-------------| 
A|5-5-5-5-6-6-6-6-8-8-8-8--8-6-5--5-5-5-5-6-6-6-6-3-3-3-3--6-5-3-------------| 
E|3-3-3-3-4-4-4-4-6-6-6-6--6-4-3--3-3-3-3-4-4-4-4-1-1-1-1--4-3-1-------------| 

And that basically is the whole song. 

-------------------------------------------------------------------------------
Related for Of Man tab