Guitaretab - guitar tabs
Song name
# A B C D E F G H I J K L M N O P Q R S T U V W X Y Z

Son Of Sam - Songs From The Earth tab

------------------------------------------------------------------------------- 
SONGS FROM THE EARTH - Son Of Sam 
------------------------------------------------------------------------------- 

Tabbed by: OpIvyman 

Intro: 
e|------------------------------12--------------| 
B|--------------------------------9-------------| 
G|--8--7-----6--5-------------------------------| 
D|--8--7-----6--5-------------------------------| 
A|--6--6-----4--4-------------------------------| 
E|----------------------------------------------| 
[ Tab from: http://www.guitaretab.com/s/son-of-sam/33834.html ]
Verse 
e|-------------------|---------------------| 
B|-------------------|---------------------| 
G|---8--7----6--5----|----666--------------| 
D|---8--7----6--5----|----666---66---------| 
A|---6--6----4--4----|----444---66---------| 
E|--------x3---------|----------44---------| 

Chorus (rhythem) Chorus (lead) 
e|-------------------|--//////12-------------| 
B|-------------------|--------------9--10----| 
G|---8---------------|-----------------------| 
D|---8----6---7------|-----------------------| 
A|---6----6---7------|-----------------------| 
E|--------4---5------|-----------------------| 

Bridge: (not sure) 
e|-------------------| 
B|-------------------| 
G|---8--------6------| 
D|---8----6---6------| 
A|---6----6---4------| 
E|--------4----------| 

That's all, folks 

-------------------------------------------------------------------------------
Related for Songs From The Earth tab