Song name
# A B C D E F G H I J K L M N O P Q R S T U V W X Y Z

Son Volt - Live Free tab

Help us improve GuitareTab! Take a short survey!
#----------------------------------PLEASE NOTE---------------------------------#
#This file is the author's own work and represents their interpretation of the #
#song. You may only use this file for private study, scholarship, or research. #
#------------------------------------------------------------------------------#
#
From: Juddy@aol.com
Date: Mon, 8 Jan 1996 23:03:50 -0500
Subject: Son Volt, "Live Free"

:::::::::Live Free:::::::::
Jay Farrar

tabs by Juddy@aol.com (Jud Branam), lyrics from Son Volt gumbo page

riff:

|---------------------------------------|--------------------------------|
|----3---3---3---2---0--------------|------------------------------------|
|--------------------------2----0------|---------------------------------|
|---------------------------------------|--------------------------------|
|---------------------------------------|--------------------------------|
|---------------------------------------|--------------------------------|

D5add9:
|-----0----------------------------------|---------------------------------|
|---- 3----------------------------------|---------------------------------|
|-----2-----------------------------------|--------------------------------|
|---- 0-----------------------------------|--------------------------------|
|---- 0-----------------------------------|--------------------------------|
|---- 0-----------------------------------|--------------------------------|

   A         G
Looking for the right kind,
       A        G  (riff)  D5add9
Live free or die.
  D                      G
I want to see your smile through a pay phone,
 D                 G
Season has changed;
(riff)
I want to see you in it,
D              G                      D        G
Lights that shine are caustic without you.

Bm(4x)           A         G
When we're all passed over,
Bm(4x)      A         G             D
The rhythm of the river will remain.
    G       A      D
It will, it will remain.

 D               G
Nicotine and waiting,
D            G
Just wanted to keep it alive
riff
You turn and 'fore you know it,
D             G                 D       G
We're just threading this needle for life.

A                   G
A brighter way is what you've proved,
A                          G         (riff)
Anesthetize is what you do.

solo over A/G/A/G, then riff

D                  G
Someday we'll be together
D         G
Farther south than the train line.
riff
The Delta mud will be there,
D            G                 D                 G
We're just livin' this way 'cause we've known no other.

Bm(4x)          A         G
When we're all passed over,
Bm(4x)          A         G     D
The rhythm of the river will remain.
    G       A       D
It will, it will remain.

A                   G
Looking for the right kind,
A              G
Live free or die.

riff, D5add9, D
Related for Live Free tab