Guitaretab - guitar tabs
Song name
# A B C D E F G H I J K L M N O P Q R S T U V W X Y Z

Sonata Arctica - Two Minds One Soul tab

***********************************************************************
*   SONATA ARCTICA - TWO MINDS, ONE SOUL - (Vanishing Point - cover   *
*   From the EP Donít say a word                                      *
***********************************************************************
Music and Words By: Vanishing Point
Transcribed By: Martin Steinkopf (<3 jani <3)
Day tabbed: 04th Jan. 2007
Email: martin_emppu@hotmail.com
Tuning: (Eb - Ab - Db - Gb - Bb - Eb) (1/2 step down)

  Intro:    1st guitar.
|--------------------------------------------------------------------------|
|--------------------------------------------------------------------------|
|*-12-12-12-12-12-12-12-12-12-12-12-12--11-11--12-12-12-12-12-12-12-12-14--|
|*-------------------------------------------------------------------------|
|--------------------------------------------------------------------------|
|--------------------------------------------------------------------------|

                  x2 | 2nd guitar.
|--------------------|-----------------------------------------------------|
|--------------------|-----------------------------------------------------|
|--14-14-14--11--11-*|-----------------------------------------------------|
|-------------------*|--9-9-9-9-9-9-9-9-9-9-9-9--7--7--9-9-9-9-9-9-9-9-9-9-|
|--------------------|--7-7-7-7-7-7-7-7-7-7-7-7--5--5--7-7-7-7-7-7-7-7-7-7-|
|--------------------|-----------------------------------------------------|

              |  Riff 1:                x4 |  pre-verse :
|-------------|----------------------------|-------------------------------|
|-------------|----------------------------|-------------------------------|
|-------------|*--------------------------*|*------------------------------|
|--9-9--7--7--|*-2-------------2-2--------*|*------------------------------|
|--7-7--5--5--|--2-------------2-2---------|-------------------------------|
|-------------|--0-0-00--00-0--0-0--00000--|--00-0--00-00-00--00-0--00-00--|

        x2 | verse                  x3 |                                  |
|----------|---------------------------|----------------------------------|
|----------|---------------------------|----------------------------------|
|---------*|---------------------------|----------------------------------|
|-----A.H.*|-----2-----2----2----2--2--|-----2-----2----2----2------------|
|-----2(3)-|-----2-----2----2----2--2--|-----2-----2----2----2--2-3-2-0-2-|
|--00------|--00-0--00-0--0-0--0-0--0--|--00-0--00-0--0-0--0-0------------|
 Pm..         ..    ..   .    .           ..    ..    .    .

  Bridge 1                                 | bridge 2
|------------------------0~----------------|-------------------------------|
|------------------------0~----------------|-------------------------------|
|------------------------0~----------------|-------------------------------|
|-5-5-5-------------2-2--2~---5-5-5-----2--|-----5-----5-----5-----5-----7-|
|-3-2-3--33-5p3\2---2-2-------3-2-3--2--2--|--33-3--33-3--33-3--33-3--55-5-|
|----------------3--0-0-----------------0--|-------------------------------|
                                            Pm..    ..    ..    ..    ..

                                                                  |Chorus
|-----------------------------------------------------------------|-------|
|-----------------------------------------------------------------|-Same--|
|-----------------------------------------------------------------|-as----|
|-----7-----7-----7-----2-----2-----2-----2---------------7---7-7-|-intro-|
|--55-5--55-5--55-5-----2-----2-----2-----2----5---5-5--5-5-5-5-5-|-riff--|
|--------------------00-0--00-0--00-0--00-0--3-3-3-3-3------------|-------|
 Pm..    ..    ..    ..    ..    ..    ..    .   .      .   .
[ Tab from: http://www.guitaretab.com/s/sonata-arctica/115498.html ]
                     |        |        |           |           |          |
|--------------------|--------|--------|-----------|-----------|----------|
|--------------------|--------|--------|-----------|-----------|----------|
|--------------------|-Intro--|-Verse--|-Bridge-1--|-Bridge 2--|--Chorus--|
|--4----5---------7--|-riff---|--------|-----------|-----------|----------|
|--2----3----5----5--|--------|--------|-----------|-----------|----------|
|------------3-------|--------|--------|-----------|-----------|----------|

| Interlude                                                               |
|-------------------------------------------------------------------------|
|-------------------------------------------------------------------------|
|-------------------------------------------------------------------------|
|-----------------------------------A.H.----------------------------------|
|-----------------------------------2b(3)---------------------------------|
|---000-000-0-00-00----000-000-0-00-------000-000-0-00-00----000-000-0-00-|
  Pm... ... . .. ..    ... ... . ..       ... ... . .. ..    ... ... . ..

| Guitar solo
|------------------------17b(19)r17--14-15b(17)-15p14-----------------------|
|--15b(17)r15----------------------------------------15b(17)15--------------|
|-------------14b(16)r14--------------------------------------12---12h14-16-|
|---------------------------------------------------------------------------|
|---------------------------------------------------------------------------|
|---------------------------------------------------------------------------|

|-------------15p14p12----------12h14h15p14p12-17p15p14--19p17p15-----------|
|---------------------12------12---------------------------------15------15-|
|-16b(17)-14------------12--12-------------------------------------16--16---|
|-------------------------14-----------------------------------------17-----|
|---------------------------------------------------------------------------|
|---------------------------------------------------------------------------|

|---15h17h19p17p15--17p15p14---15p14p12----------12h14p15p14p12-15p14p12---|
|--------------------------------------12------12--------------------------|
|----------------------------------------12--12----------------------------|
|------------------------------------------14------------------------------|
|--------------------------------------------------------------------------|
|--------------------------------------------------------------------------|

|--14p12p10----------10h12h14p12p10--------------10------------------------|
|----------10------10--------------12---12-12-10----12p10--10--------------|
|------------11--11--------------------------------------12--11--14h16h17--|
|--------------12----------------------------------------------------------|
|--------------------------------------------------------------------------|
|--------------------------------------------------------------------------|

                                                                 |w/Fill 1
|------------------------------------------------------13h15h17--|--------|
|-------------------13h15h17-13h15h17-15h17h18-17h18h20----------|--------|
|-14h16h17-16h17h19----------------------------------------------|-Chorus-|
|----------------------------------------------------------------|--------|
|----------------------------------------------------------------|--------|
|----------------------------------------------------------------|--------|

    x2 | Outro                   x3  |
|--------------------|-----------------------------|-------------------|
|--------------------|-----------------------------|-------------------|
|*------------------*|*---------------------------*|-------------------|
|*-4----5---------7-*|*-2-2-2-2--2-2-2--2-2-------*|--2-2-2-2--2-2-2\--|
|--2----3----5----5--|--2-2-2-2--2-2-2--2-2--------|--2-2-2-2--2-2-2\--|
|------------3-------|--0-0-0-0--0-0-0--0-0-000000-|--0-0-0-0--0-0-0\--|
                        . . . .  . . .  . . ......    . . . .  . . .

----------------------------------------------------------------------------------

|  Fill 1                   |Gtr. solo rhythm    x2                     x2
|--17b(19)~-----------------|-----------------------|---------------------|
|-------------17b(19)r(17)--|-----------------------|---------------------|
|---------------------------|*---------------------*|*-------------------*|
|---------------------------|*--4----5---------7---*|*-2----7----4----5--*|
|---------------------------|---2----3----4----5----|--2----5----2----3---|
|---------------------------|-------------2---------|--0------------------|

                  END...


   Tabbed by Martin Steinkopf (<3 jani <3)
Related for Two Minds One Soul tab