Guitaretab - guitar tabs
Song name
# A B C D E F G H I J K L M N O P Q R S T U V W X Y Z

Sonata Arctica - I Want Out tab

********************************************************
* SONATA ARCTICA - I WANT OUT (From the EP: SUCCESSOR) *
********************************************************
 Music and Words By: Kai Hansen

Transcribed By: Niclas Buss
Day tabbed: 1.9.2000
email: nbuss@ironmaiden.com

Please mail me if you can find mistakes!

-----------------------------------------
"This cover songs original version can
be found on Helloween's album: KEEPER
OF THE SEVEN KEYS PART II".
-----------------------------------------

 Tune down 1/2 step!
									        x4
E----------------------------------------------------------------------------------|
B--------------|-------------------------------------------------------------------|
G--Drum-Intro--|*-----------------------------------------------------------------*|
D---(2.sec)----|*--7---7---7---7---5---7~-----7---7---7---7---5---7---/-8-7-5-----*|
A--------------|-----5---5---5---5---5----5~----5---5---5---5---5---5---------8----|
E----------------------------------------------------------------------------------|
                    pm  pm  pm  pm  pm	     pm  pm  pm  pm  pm  pm

  Two Guitars.................|     Verse 1
E--------------------------------||------------------------------------------------|
B--------------------------------||------------------------------------------------|
G------------/--7~---9~-/--10~---||--7-\-5-\-4-----------------------------7-\-5-\-|
D--3~-/--7~--/--7~--10~-/--12~---||--5-\-3-\-2--5-/-7~---------------------5-\-3-\-|
A--5~-/--8~----------------------||-------------3-/-5~~----------------------------|
E--------------------------------||------------------------------------------------|

		    Bridge					      Chorus
E----------------------------------------------------------------------------------|
B-----------------|-------------------------------------------------|--------------|
G-4---------------|-------------------------------------------------|--------------|
D-2--5-/-7~-------|--7-7--\-5~--------------------------------------|--2/5~---7~---|
A----3-/-5~-------|--5-5--\-3~----5~-----8~--7-7-7-7-7-7-7-7-7-7\---|--0/3~---5~---|
E---------------------------------3~-----6~--5-5-5-5-5-5-5-5-5-5\------------------|

E----------------------------------------------------------------------------------|
B----------------------------------------------------------------------------------|
G----------------------------------------------------------------------------------|
D--3~----5~----7~-----3~-------5------5-/-7~-----3~------5~------7~-----3~----5\---|
A--1~----3~----5~-----1~--/3-3-3--3-3-3-/-5~-----1~------3~------5~-----1~----3\---|
E----------------------------------------------------------------------------------|
			 pm...|  pm..|

  Riff 1							x2   Verse 2
E----------------------------------------------------------------------------------|
B------------------------------------------------------------------|---------------|
G*----------------------------------------------------------------*|---------------|
D*--7---7---7---7---5---7~-----7---7---7---7---5---7---/-8-7-5----*|------7-----7--|
A-----5---5---5---5---5----5~----5---5---5---5---5---5---------8---|--5-5-5-5-5-5-5|
E----------------------------------------------------------------------------------|
     pm  pm  pm  pm  pm         pm  pm  pm  pm  pm  pm		     pm..| pm..| pm

E----------------------------------------------------------------------------------|
B----------------------------------------------------------------------------------|
G----------------------------------------------------------------------------------|
D-7-----7-----7---7-----7-----7---7------3-----3---3------5-----5---5-----5-----5--|
A-5-5-5-5-5-5-5-5-5-5-5-5-5-5-5-5-5-\1-1-1-1-1-1-1-1-/3-3-3-3-3-3-3-3-3-3-3-3-3-3-3|
E----------------------------------------------------------------------------------|
   pm..| pm..| pm  pm..| pm..| pm   pm..| pm..| pm  pm...| pm..| pm  pm..| pm..| pm

E----------------------------------------------------------------------------------|
B----------------------A.H.--------------------------------------------------------|
G---------------------/-7~--\-5-\-4------------------------------------------------|
D-5------7-----7---7--------\-3-\-2--5-/-7~-----7---7-----7-----7---7-----7-----7--|
A-3-/5-5-5-5-5-5-5-5-----------------3-/-5~-5-5-5-5-5-5-5-5-5-5-5-5-5-5-5-5-5-5-5-5|
E----------------------------------------------------------------------------------|
   pm...| pm..| pm			   pm..| pm  pm..| pm..| pm  pm..| pm..| pm

E----------------------------------------------------------------------------------|
B----------------------------------------------------------------------------------|
G----------------------------------------------------------------------------------|
D-7------3-----3---3------5-------5-------5-------5---------7------7------7------7~|
A-5-\1-1-1-1-1-1-1-1-/3-3-3-3-3-3-3-3-3-3-3-3-3-3-3-3-/-5-5-5--5-5-5--5-5-5--5-5-5~|
E----------------------------------------------------------------------------------|
   pm...| pm..| pm  pm...| pm....| pm....| pm....| pm......|  pm..|  pm..|  pm..|

			    Two Guitars:
E----------------------------------------------------------------------------------|
B------------|------------|--------------------------------------------------------|
G---Bridge---|---Chorus---|-------------/--7~---9~--/--10~----5--------------------|
D------------|------------|--3~--/--7~--/--7~--10~--/--12~------7p6p5-\-3h5--------|
A------------|------------|--5~--/--8~---------------------------------------5\----|
E----------------------------------------------------------------------------------|

  Interlude
E----------------------------------------------------------------------------------|
B----------------------------------------------------------------------------------|
G----------------------------------------------------------------------------------|
D----------------------------------------------------------------------------------|
A----------7\--7-7--7\-----------7\------3-5-7-5-3-------------5\--5-5--5\---------|
E--5-5-5-5-5\--5-5--5\---5-5-5-5-5\--5-7-----------7--\3-3-3-3-3\--3-3--3\---3-3-3-|
  pm......|		pm......|   pm........................|		    pm.....

E----------------------------------------------------------------------------------|
B----------------------------------------------------------------------------------|
G----------------------------------------------------------------------------------|
D----------------------------------------------------------------------------------|
A---5\------2-3-5-3-2-------------3\--3-3--3\-----------3\--------1-3-1------2-----|
E-3-3\--3-5-----------5--\1-1-1-1-1\--1-1--1\---1-1-1-1-1\--1-3-5-------5-3--0--0-0|
 ..|   pm........................|	       pm......|   pm..............|   pm..

								    Guitar Solo
E-----------------------------------------------------------------------------/-12-|
B-----------------------------------------------------------------|--15b(17)~------|
G-----------------------------------------------------------------|----------------|
D-----------------------------------------------------------------|----------------|
A-----------------------------/-7-7-7-7-7-7-7-7-7-7-7-7-7-7-7-7---|----------------|
E-0-0-0-0-0-0-0-0-0-0-0-0-0-0------------------------------------------------------|
 ..............................................................|

E-14-15-------8h12p8---------------------------------------------------------------|
B-------13~----------10/12p8-------------------------------------------------------|
G----------------------------9/12p9------------------9-10-12-10-9------------------|
D-----------------------------------10-------9-10-12--------------12-10-9--------/-|
A--------------------------------------10-12------------------------------12-10~---|
E----------------------------------------------------------------------------------|

E--------------------------------------------------15-17-15------------------------|
B-----------------------------------------15-17-18----------18-17-15---------------|
G-------------------/12-14-16-12-14-16/17----------------------------17-16-14------|
D-10-12-14-10-12-14-----------------------------------------------------------17~--|
A----------------------------------------------------------------------------------|
E----------------------------------------------------------------------------------|
 pm.................|

						  Harmony Solo (Two Guitars)
E----------------------------------------------------------------------------------|
B-----------------------------|-----------------|---6~---6--8-10--10--10b(11)-r10~-|
G-14b(16)-r14-12h14--12-14~~--|--Keyboard-Solo--|*--7~---7--9-10--10--10b(12)-r10~-|
D-----------------------------|-----------------|*---------------------------------|
A-----------------------------|-----------------|----------------------------------|
E----------------------------------------------------------------------------------|

E------/-15-15-13-13-1212------------------------------------------8~------------/-|
B------------------------13-13--/-6~---6--8-10--10--/-11-11-\10-----------13-------|
G--9~--/-12-12-10-10-9-9--------/-7~---7--9-10--10--/-12-12-\10~--12b(14)-r--12~-/-|
D--10~-------------------10-10-----------------------------------------------------|
A----------------------------------------------------------------------------------|
E----------------------------------------------------------------------------------|

			  x2
E-20-20-18-18-17-17-15-15-----2.Gtrs:----------------------------------------------|
B---------------------------|--6~--------------------------------------------------|
G-17-17-15-15-14-14-12-12--*|--7~--------------------------------------------------|
D--------------------------*|--7-----------/-5~---/-7~-----------------------------|
A---------------------------|--5------8----/-3~---/-5~---5~-h7-8--7--5-h7--5--3~---|
E-------------------------------------6--------------------------------------------|

E----------------------------------------------------------------------------------|
B-------------------------------------------------------|----------|---------------|
G-------------------------------------------------------|--Chorus--|*--------------|
D------7\-------------------3-3-3-3-3-3-3-3-3-3-3-/-5\--|----------|*--9---9---9---|
A--5-5-5\-------------------1-1-1-1-1-1-1-1-1-1-1-/-3\--|----------|-----7---7---7-|
E----------------------------------------------------------------------------------|
  pm..|									pm  pm  pm
						    x4
E------------------------------------------------------------------------------||
B------------------------------------------------------|-----------------------||
G-----------------------------------------------------*|-----------------------|| end
D9---7---9~------9---9---9---9---7---9---/-10-9-7-----*|-----------9-9~~--\----||
A--7---7----7~-----7---7---7---7---7---7----------10---|--2-2-\----7-7~~--\-\--||
E---------------------------------------------------------0-0-\-------------\--||
  pm  pm          pm  pm  pm  pm  pm  pm

--------------------------------------------------------------------------------------

  Rhythm Guitar during Guitar Solo
E-------------------------------------------------||
B-------------------------------------------------||
G-------------------------------------------------|| end
D---2~---------------------------------------2~---||
A---0~----3~-----5~-----2~-----3~-----5~-----0~---||
E---------1~-----3~-----0~-----1~-----3~----------||

  Rhythm Guitar during Keyboard Solo
E----------------------------------------------------------------------------------|
B----------------------------------------------------------------------------------|
G----------------------------------------------------------------------------------|
D---2~-----------------------/-5--------------/-7--------------/-9-----------------|
A---0~----3~-----5~-----2~---/-3--3-3-3-3-3-3-/-5--5-5-5-5-5-5-/-7--7-7-7-7-7-7-7-7|
E---------1~-----3~-----0~---------------------------------------------------------|
				 pm..........|    pm..........|    pm..............

E-------------------||
B-------------------||
G-------------------|| end
D-------------------||
A-7-7-7-7-7-7-7-7---||
E-------------------||
 ................|

  Rhythm Guitar during Harmony Solo		 x4
E---------------------------------------------------||
B---------------------------------------------------||
G*-------------------------------------------------*|| end
D*---7~---/-9-10~--\--5~-----7~----/-9-10~---\-5~--*||
A----5~---/-7-8~---\--3~-----5~----/-7-8~----\-3~---||
E---------------------------------------------------||

--------------------------------------------------------------------------------------

=======================
=TABLATURE EXPLANATION=
=======================

A.H. = Artificial Harmonic

<12> = Natural Harmonic

pm..| = Palm mute

h = hammer on

p = pull off

/ = slide up

\ = slide down

~ = Vibrato

b() = Bend

x\ = Pick Slide

--------
--------
---12--- = Tremolo pick
----/---
----/---
----/---

---.---
--12--- = Staccato
-------
-------
-------

|     |
|     |
|*   *| = repeat from * to *
|*   *| 
|     |
[ Tab from: http://www.guitaretab.com/s/sonata-arctica/128520.html ]
Related for I Want Out tab