Guitaretab - guitar tabs
Song name
# A B C D E F G H I J K L M N O P Q R S T U V W X Y Z

Sonata Arctica - Misplaced tab

	*******************************************************
	* SONATA ARCTICA  MISPLACED  ALBUM: RECKONING NIGHT *
	*******************************************************

Music and words: Tony Kakko
Day tabbed: 06.17.2006
Transcribed by: Martin Steinkopf
E-mail: Martin_emppu@hotmail

--------------------------------------------------------------

Tuning: Drop B (B-F#-B-G-B-E)

Jani Liimatainen uses an 7-string guitar where the 7th string is darker (B).
But I have tabbed this in drop B so people with 6 strings can play it!

Intro (00:00):                                      x3
|---------------------------------------------------------|
|---------------------------------------------------------|
|*-------------------------------------------------------*|
|*--3-3-3-3-3--3-3-3-3-3--3-3-3-3-3--6-6-6-6-6--8-8-8-8-8*|
|---3-3-3-3-3--3-3-3-3-3--3-3-3-3-3--6-6-6-6-6--8-8-8-8-8-|
|---3-3-3-3-3--3-3-3-3-3--3-3-3-3-3--6-6-6-6-6--8-8-8-8-8-|
      . . . .    . . . .    . . . .    . . . .    . . . .

|-------------------------------------------------------------|
|---------------------------------(Stop)----------------------|
|-------------------------------------------------------------|
|--3-3-3-3-3--3-3-3-3-3--3-3-3-3-3------7---3---5--10\10--7---|
|--3-3-3-3-3--3-3-3-3-3--3-3-3-3-3------5---1---3---8\7---5---|
|--3-3-3-3-3--3-3-3-3-3--3-3-3-3-3----------------------------|
     . . . .    . . . .    . . . .
                                               Verse 1(00:36):
|---------------------------------------------|---------------|
|---------------------------------------------|---------------|
|--------------2-------0---5\5--2-------0-----|---------------|
|--3---5-------3---6---1---6\5--3---6---1-----|*5--8-10--5--5-|
|--1---3-----------4----------------4---------|*3--6--8--3--3-|
|---------------------------------------------|---------------|
                 ____________________ ___________________
             x2 | 1.                 | 2.                |
|---------------|--------------------|-------------------|----|
|---------------|--------------------|-------------------|----|
|---------------|--------------------|-------------------|----|
|-8-10---------*|-5-8-10-5-6-5-6-4-5-|-5-8-10-12-6--3--5-|----|
|-6--8-8-8-8...*|-3-6-8--3-6-3-6-2-3-|-3-6-8--10-6--1--3-|----|
|---------------|----------6---6-----|-----------6-------|----|
       . . .

 Bridge 1 (01:15):
|-----------------------------------------------------|
|-----------------------------------------------------|
|*----------------------------------------------------|
|*--3-3-3-3-3--3-3-3-3-3--3--3-3-3-3-3--3-3-3-3-3--3--|
|---3-3-3-3-3--3-3-3-3-3--3--3-3-3-3-3--3-3-3-3-3--3--|
|---3-3-3-3-3--3-3-3-3-3--3--3-3-3-3-3--3-3-3-3-3--3--|
      . . . .    . . . .       . . . .    . . . .
                                                  x2
|----------------------------------------------------|
|----------------------------------------------------|
|---------------------------------------------------*|
|--6-6-6-6-6--6-6-6-6-6--6--8-8-8-8-8--8-8-8-8-8--8-*|
|--6-6-6-6-6--6-6-6-6-6--6--8-8-8-8-8--8-8-8-8-8--8--|
|--6-6-6-6-6--6-6-6-6-6--6--8-8-8-8-8--8-8-8-8-8--8--|
     . . . .    . . . .       . . . .    . . . .

 Verse 2 (01:27):                              x2
|-------------------------------------------------|
|-------------------------------------------------|
|------------------------------------------------*|
|*5--8-10--5--5--8-10----------5-8-10-12-6--3--5-*|
|*3--6--8--3--3--6--8-8-8-8...-3-6-8--10-6--1--3--|
|----------------------------------------6--------|

 Bridge 2 (01:15):
|-----------------------------------------------------|
|-----------------------------------------------------|
|*----------------------------------------------------|
|*--3-3-3-3-3--3-3-3-3-3--3--3-3-3-3-3--3-3-3-3-3--3--|
|---3-3-3-3-3--3-3-3-3-3--3--3-3-3-3-3--3-3-3-3-3--3--|
|---3-3-3-3-3--3-3-3-3-3--3--3-3-3-3-3--3-3-3-3-3--3--|
      . . . .    . . . .       . . . .    . . . .
                                                  x2
|----------------------------------------------------|
|----------------------------------------------------|
|---------------------------------------------------*|
|--6-6-6-6-6--6-6-6-6-6--6--8-8-8-8-8--8-8-8-8-8--8-*|
|--6-6-6-6-6--6-6-6-6-6--6--8-8-8-8-8--8-8-8-8-8--8--|
|--6-6-6-6-6--6-6-6-6-6--6--8-8-8-8-8--8-8-8-8-8--8--|
     . . . .    . . . .       . . . .    . . . .
[ Tab from: http://www.guitaretab.com/s/sonata-arctica/145135.html ]
Chorus 1 (02:00):
|--------------------------------------------------------------|
|--------------------------------------------------------------|
|-----------------------------------2-------0---5\5--2-------0-|
|--7---3---5--10\10--7--3---5-------3---6---1---6\5--3---6---1-|
|--5---1---3---8\7---5--1---3-----------4----------------4-----|
|--------------------------------------------------------------|

                             x3
|------------------------------|--------------------------|
|------------------------------|--------------------------|
|*----------------------------*|--------------------------|
|*-3------3------6------8-----*|--3------3------6------8--|
|--3------3------6------8------|--3------3------6------8--|
|--3333...3333...6666...8888...|--3333...3333...6------8--|
    ...    ...    ...    ...       ...    ...

             Riff 1 (02:48):
|-----------|--------------------------------------------------------|
|-(keyboard-|--------------------------------------------------------|
|--Riff)----|--------------------------------------------------------|
|-----------|--0-------0---------------0-------0--------5-7-10-------|
|--(02:37)--|--0-------0------8-7-5-3--0-------0------8--------8-----|
|-----------|--0-0-0-0-0-0-0-0-0-0-0-0-0-0-0-0-0-0-0-0-0-0-0-0---0-0-|
                 . . .   . . . . . . .   . . .   . . . . . . . . . .

|----------------------------------------------------------------|
|----------------------------------------------------------------|
|----------------------------------------------------------------|
|----0---------------0-------0-------7-------8-7-0-------0-------|
|----0------8-7-5-3--0-------0-------7-------8-7-0-------0-------|
|--0-0-0-0-0-0-0-0-0-0-0-0-0-0-0-0-0-7-7-7-7-8-7-0-0-0-0-0-0-0-0-|
   .   . . . . . . .   . . .   . . .   . . .       . . .   . . .

                Bridge 3 (03:03):
|-------------|---------------------------------------------|
|-------------|---------------------------------------------|
|------4-6/7--|*--------------------------------------------|
|-----7-------|*-3-3-3-3-3--3-3-3-3-3--3-3-3-3-3--3-3-3-3-3-|
|--5h8--------|--3-3-3-3-3--3-3-3-3-3--3-3-3-3-3--3-3-3-3-3-|
|-------------|--3-3-3-3-3--3-3-3-3-3--3-3-3-3-3--3-3-3-3-3-|
                   . . . .    . . . .    . . . .    . . . .

                                          x2 |                   x2
|--------------------------------------------|-----------------------|
|--------------------------------------------|-----------------------|
|-------------------------------------------*|*----------------------|
|-6-6-6-6-6--6-6-6-6-6--8-8-8-8-8--8-8-8-8-8*|*0---------------------|
|-6-6-6-6-6--6-6-6-6-6--8-8-8-8-8--8-8-8-8-8-|-0------3------5-------|
|-6-6-6-6-6--6-6-6-6-6--8-8-8-8-8--8-8-8-8-8-|-0000...3333...5555----|..
     . . . .    . . . .    . . . .    . . . .   ...    ...    ...

 Keyboard solo (03:27):                                 x2
|----------------------------------------------------------|
|----------------------------------------------------------|
|*--------------------------------------------------------*|
|*-1------1---1--1------1---1--4------4---4--6------6---6-*|
|--1------1---1--1------1---1--4------4---4--6------6---6--|
|--1111...11111--1111...11111--4444...44444--6666...66666--|
    ...    ...    ...    ...    ...    ...    ...    ...

Guitar solo (03:39):
|--------------------------------------------------------------------|
|--------------------------------------------------------------------|
|*-------------------------------------------------------------------|
|*3-------3-------3-------3-------6-------6-------8-------8-------8--|
|-3-------3-------3-------3-------6-------6-------8-------8-------8--|
|-3-3-3-3-3-3-3-3-3-3-3-3-3-3-3-3-6-6-6-6-6-6-6-6-8-8-8-8-8-8-8-8-8--|

 Interlude (03:51):   Chorus 2 (04:03)
|-------------------| ----------------------------------------------|
|-------------------|-----------------------------------------------|
|*-----------------*|-----------------------------------2-------0---|
|*--3----6----8----*|--7---3---5--10\10--7--3---5-------3---6---1---|
|---1----4----6-----|--5---1---3---8\7---5--1---3-----------4-------|
|-------------------|-----------------------------------------------|

                                            x4
|-----------------------------------------------|
|-----------------------------------------------|
|--5\5--2-------0-*----------------------------*|  END
|--6\5--3---6---1-*-3------3------6------8-----*|
|-----------4-------3------3------6------8------|
|-------------------3333...3333...6666...8888...|
                     ...    ...    ...    ...

--------------------------------------------------------------------|
--------------------TABELATURE EXPLANATION--------------------------|
--------------------------------------------------------------------|

A.H. = Artificial Harmonic

pm..| = Palm mute

h = hammer on

p = pull off

/ = slide up

\ = slide down

~ = Vibrato

b() = Bend

x\ = Pick Slide

--------|
--------|
---12---| = Tremolo pick
----/---|
----/---|
----/---|

---.---|
--12---| = Staccato
-------|
-------|
-------|


|     |
|     |
|*   *| = repeat from * to *
|*   *|
|     |
Related for Misplaced tab