Song name
# A B C D E F G H I J K L M N O P Q R S T U V W X Y Z

Sonata Arctica - Breathing tab

Breathing
Sonata Arctica
Song number 5 from The Days of Grace (2009)
Guitar Tunning: 1/2 step down, maybe  string guitar

Easy song, easy to play, easy to sing... i like it lol

Verse 1

      C  Bb  Ab G5*  C   Bb F  A5*   C  Bb  Ab G5*  Eb  Bb A5* F
eb||------------------------------|------------------------------||
Bb||------------------------------|----------------------------=-||
Gb||------------------------------|-----------------8------------||
Db||--10--8--6--5----10--8--3--7--|--10--8--6--5----8---8--7--3--||
Ab||--10--8--6--6----10--8--3--8--|--10--8--6--6----6---8--8--3--||
Eb||--8---6--4--3----8---6--1--5--|--8---6--4--3--------6--5--1--||


C           Bb       Ab               G5*
  I take my hat off, bow before the greatness
C                Bb                F      A5* 
  You're so much braver I give you credit for
C             Bb             Ab      G5*
  Somehow the Grays create a harmony
Eb       Bb              A5*           F
  And no color can add a flavor...I've started to feel like...


Break

D  F  C  D  F  C  Bb  F  C  Bb  F  C


Verse 2 

C          Bb             AB        G5*
  Know the face, familiar stranger
C           Bb               F      A5*
  I'm not a child, I feel misunderstood
C           Bb                  Ab        
  I built a bridge, you use the tunnel... now...
G5*                                   Eb
  The rope we are pulling is slipping away from me
Eb         Bb             A5*                    F
  All this wasted time is killing me... and I've started to feel like...


Chorus And Breakes

D              F           C
  I can not control my life anymore
D                F                C
  Feel a need to leave and breathe on my own
Bb                   F                   C
  I remember all the broken songs of our life
Bb               F                       C
  Maybe one more wrong will make it all right...
Bb
  I just really need to be alone now...


Guitar SOLO:
-
eb||-----------------------------------|---------------------------------------||
Bb||--13fb.r. 10--6--10---8-8--8-10-6--|--13fb.r. 10--6-10--8-8--8-10-10.1/2b--||
Gb||-----------------------------------|---------------------------------------||
Db||-----------------------------------|---------------------------------------||
Ab||-----------------------------------|---------------------------------------||
Eb||-----------------------------------|---------------------------------------||

eb||-----------------------------------|------------------------------||
Bb||--13fb.r. 10--6--10---8-8--8-10-6--|----------------------------=-||
Gb||-----------------------------------|------------------------------||
Db||-----------------------------------|------------------------------||
Ab||-----------------------------------|------------------------------||
Eb||-----------------------------------|------------------------------||


Last Chorus KEY CHANGE

E              G           D
  I can not control my life anymore
E                G                D
  Feel a need to leave and breathe on my own
C                    G                   D
  I remember all the broken songs of our life
C                G                       D
  Maybe one more wrong will make it all right...
C
  I just really need to be alone now...




Tap to rate this tab
# A B C D E F G H I J K L M N O P Q R S T U V W X Y Z