Song name
# A B C D E F G H I J K L M N O P Q R S T U V W X Y Z

Sonata Arctica - As If The World Wasnt Ending tab

Song:	As If The World Wasn't Ending
Artist: Sonata Arctica
Album:	The Days Of Grays
Tuning: 7-string half step down
E-mail: chaosmarcel@hotmail.com

0:58
eb|-------------------------|
bb|-------------------------|
Gb|-------------------------|
Db|--7---5---4---3-------5--|
Ab|--7---5---5---3---5---5--|
Eb|--5---3---2---1---5---3--|
Bb|------------------3------|


1.07
eb|-------------------------------------|
bb|-------------------------------------|
Gb|------------------4------------------|
Db|--7-------4---5---4-----------7------|
Ab|--7---7---5---5---2---4---5---7---7--|
Eb|--5---7---2---3-------5---5---5---7--|
Bb|------5---------------2---3-------5--|
		         

1.39
eb|-------------------------|
bb|-------------------------|
Gb|------4---5---3----------|
Db|--7---5---5---3---3---5--|Play 2x
Ab|--7---2---3---1---3---5--|
Eb|--5---------------1---3--|
Bb|-------------------------|


1.57
eb|-------------------------|
bb|-------------------------|
Gb|-------------------------|
Db|--7---5---4---3-------5--|
Ab|--7---5---5---3---5---5--|
Eb|--5---3---2---1---5---3--|
Bb|------------------3------|


2.15 [solo]
eb|-------------------------------------|
bb|-------------------------------------|
Gb|------------------4------------------|
Db|--7-------4---5---4-----------7------|
Ab|--7---7---5---5---2---4---5---7---7--|
Eb|--5---7---2---3-------5---5---5---7--|
Bb|------5---------------2---3-------5--|
			 
2.46
eb|-------------------------|
bb|-------------------------|
Gb|------4---5---3----------|
Db|--7---5---5---3---3---5--|Play 4x
Ab|--7---2---3---1---3---5--|
Eb|--5---------------1---3--|
Bb|-------------------------|


3.22
eb|-------------------------|
bb|-------------------------|
Gb|-------------------------|
Db|--7---5---4---3-------5--|Play 2x
Ab|--7---5---5---3---5---5--|
Eb|--5---3---2---1---5---3--|
Bb|------------------3------|
Tap to rate this tab
 
# A B C D E F G H I J K L M N O P Q R S T U V W X Y Z