Song name
# A B C D E F G H I J K L M N O P Q R S T U V W X Y Z

Sonata Arctica - The Cage tab

*******************************************************************
* SONATA ARCTICA - THE CAGE (From the ALBUM: WINTERHEART'S GUILD) *
*******************************************************************

Since there were no accurate tabs for the solo from "The Cage", I tried my hand at it. 
is what I came up with. It sounds completely accurate, but the parts are so fast I had to 
them down first.

Tabbed by: djG|UG

Tune down 1/2 step (Eb Ab Db Gb Bb Eb)


D#|---------------11/13-|-L-----15br(16)--------|---------------------|
A#|---------------------|---------------16------|---------------------|
F#|------12---13--------|-------------------15--|-13---12-------------|
C#|-10------------------|-----------------------|-----------13--------|
G#|---------------------|-----------------------|---------------11----|
D#|---------------------|-----------------------|---------------------|

    T   T          T   T          T   T          T   T
D#|-20p16-20p16p13p11-18p15-18p15p13p11-------------------------------------|
A#|-------------------------------------21p16-21p16p13p11-20p16-20p16p13p11-|
F#|-------------------------------------------------------------------------|
C#|-------------------------------------------------------------------------|
G#|-------------------------------------------------------------------------|
D#|-------------------------------------------------------------------------|

                                                               T
D#|--------------------------|-------------------------------------------------------------------|
A#|-18b(21)-18-16------------|-------------------------------------------------------------------|
F#|---------------17-15------|-------------------------8h10h13-1513p10p8-----------------8h10h13-|
C#|---------------------18---|-----------------8h10h13--------------------13p10p8-8h10h13--------|
G#|--------------------------|---------8h11h13---------------------------------------------------|
D#|--------------------------|-8h11h13-----------------------------------------------------------|

                     T
D#|--------------------------------------------|
A#|----------16h18h212321p18p16----------------|
F#|-15h17h20--------------------20p17p15-------|
C#|--------------------------------------18----|
G#|--------------------------------------------|
D#|--------------------------------------------|


D#|--------------------------------------------------------11h13h16-|-16~----|
A#|-----------------------------------------------11h13h16----------|--------|
F#|-------------------------------8h10h13-8h10h13-------------------|--------|
C#|--------6h8h10---------8h10h13-----------------------------------|--------|
G#|-6h8h11--------8h11h13-------------------------------------------|--------|
D#|-----------------------------------------------------------------|--------|

-----------------------------------------------------------------------------------------

************************************

| /   slide up
| \   slide down
| h   hammer-on
| p   pull-off
| ~   vibrato
| +   harmonic
| x   Mute note
| b   Bend
| pb  Pre-bend
| br  Bend release
| pbr Pre-bend release
| brb Bend release bend

************************************
Tap to rate this tab
 
# A B C D E F G H I J K L M N O P Q R S T U V W X Y Z