Song name
# A B C D E F G H I J K L M N O P Q R S T U V W X Y Z

Sonata Arctica - World In My Eyes tab

**********************************************************
* SONATA ARCTICA - WORLD IN MY EYES (Depeche Mode -cover)*
*  FROM THE EP - DON'T SAY A WORD                        *
**********************************************************

Music and Words By: Depeche Mode
Transcribed By: Ryan Feliciano (<3 jani <3)
Day tabbed: 25th July, 2011
Email: darksythx@gmail.com
Tuning: (Eb - Ab - Db - Gb - Bb - Eb) (1/2 step down)
(With 7 strings!)

---------------------------------------------------------------------------

 Intro riff: (08:00)         x2 | Verse 1     | verse 2
|-------------------------------|-------------|----------------------------|
|-------------------------------|-------------|----------------------------|
|*-----------------------------*|-------------|----------------------------|
|*-----------------------------*|--No-guitars-|*---------------------------|
|--5------2----2-2---3---2-2----|-------------|*\--------------------------|
|--3p0--5-0--5-0-0-5-1-5-0-0-5--|-------------|-\3p0---0---0-0---1---0-0---|
|-------3----3-----3---3-----3--|-------------|-\----3---3-----3---3-----3-|

                           x2 |           x4 | Verse 3
|-----------------------------|--------------|-----------------------------|
|-----------------------------|--------------|-----------------------------|
|-----------------------------|--------------|-----------------------------|
|----------------------------*|--Intro-riff--|*----------------------------|
|--3p0---0---0-0---1---0-0---*|--------------|*\5-2-X---2-X----2-2-X---3-X-|
|------3---3-----3---3-----3--|--------------|-\3p0-X-5-0-X--5-0-0-X-5-1-X-|
|-----------------------------|--------------|-\------3------3-------3-----|


           x4 |           | Bridge                                |       |
|-------------|-----------|---------------------------------------|-------|
|-------------|-----------|---------------------------------------|-------|
|-------------|-----------|---------------------------------------|-Intro-|
|------------*|--Verse 2--|---------------------------------------|-Riff--|
|----2-2-----*|-----------|--4-----7-----5-----6-----2-----7---9--|-------|
|--5-0-0-5-X--|-----------|--4-----5-----3-----6-----0-----5---7--|-------|
|--3-----3-X--|-----------|--2-----------------4------------------|-------|

|              |           |          |       x10 |
|--------------|-----------|----------|-----------|----------------|
|--------------|-----------|----------|-----------|----------------|
|---verse-1----|-----------|----------|-----------|----------------|
|-(no guitars)-|--Verse-2--|--Bridge--|--Verse-2--|--2~------\-----| END
|--------------|-----------|----------|-----------|--2~------\-----|
|--------------|-----------|----------|-----------|--0~------\-----|
|--------------|-----------|----------|-----------|----------------|



Tabbed by Ryan Feliciano (<3 jani <3)
Tap to rate this tab
 
# A B C D E F G H I J K L M N O P Q R S T U V W X Y Z