Song name
# A B C D E F G H I J K L M N O P Q R S T U V W X Y Z

Sonata Arctica - Wildfire tab

I do not own this tab and it's from the Sonata Arctica website.
Full credit goes to original tabber.

***************************************************************
* SONATA ARCTICA - WILDFIRE (From the ALBUM: RECKONING NIGHT) *
***************************************************************
Music and Words By: Sonata Arctica/Tony Kakko
Transcribed By: Jan Lazur  
Day tabbed: 1.2.2005
email: janny1985@zoznam.sk

Please mail me if you can find mistakes!
----------------------------------------------------

Jani plays with 7-strings guitar tuned down 1/2 in Eb

    * You can play this song also with 6-strings guitar. Tuned down in 
      (Bb,Gb,Db,Ab,Eb,Bb). Then you can play the complete song.
  

   /0:01 Intro     /0:47 Riff
Eb|----------------------------------------------------------------------------|
Bb|---------------|------------------------------------------------------------|
Gb|-----Intro-----|------------------------------------------------------------|
Db|---------------|-7----------------------------3-----------------------------|
Ab|---------------|-7----------------------------3----------------------------3|
Eb|---------------|-5-5-5-5-5-5-5-5-5-5-5-5-5-5--1-1-1-1-1-1-1-1-1-1-1-1-1-1--3|
Bb|---------------------------------------------------------------------------1|
                    p.m........................................................

Eb|----------------------------------------------------------------------------|
Bb|----------------------------------------------------------------------------|
Gb|----------------------------------------------------------------------------|
Db|---------------------------------------------A.H.--7------------------------|
Ab|----------------3----------------3---------3--3~---7------------------------|
Eb|--3--3----------3----------------3---------3-------5-5-5-5-5-5-5-5-5-5-5-5-5|
Bb|--1--1--1-1-1-1-1--1-1-1--1-1-1--1--1-1-1--1--------------------------------|
    ...........................................|      p.m......................

Eb|----------------------------------------------------------------------------|
Bb|----------------------------------------------------------------------------|
Gb|----------------------------------------------------------------------------|
Db|----3----------------------------5---------5---------5---------5---------5--|
Ab|----3----------------------------5---------5---------5---------5---------5--|
Eb|-5--1-1-1-1-1-1-1-1-1-1-1-1-1-1--3-3-3-3-3-3-3-3-3-3-3-3-3-3-3-3-3-3-3-3-3-3|
Bb|----------------------------------------------------------------------------|
    ..............................|   p.m....|  p.m....|  p.m....|  p.m....|  . 

         /0:58 Verse 1
Eb|----------------------------------------------------------------------------|
Bb|-----|----------------------------------------------------------------------|
Gb|-----|---------5~------5~---8~---7~----10~---7~----5~----5~----5~----8~---7~|
Db|---5-|---------5~------5~---8~---8~----10~---8~----5~----5~----5~----8~---8~|
Ab|---5-|-3-3-3-3-3~------3~---6~---5~----8~----5~----3~----3~----3~----6~---5~|
Eb|-3-3-|----------------------------------------------------------------------|
Bb|----------------------------------------------------------------------------|
    .|    p.m....|
                                                                            ___
                    /1:13 Pre-Chorus 1                                     |1.
Eb|------------------------------------------------------------------------|---|
Bb|----------------|-----------------------------------------------------------|
Gb|----10~---7~----|*----------------------------5---------5---------5-----|---|
Db|----10~---8~----|*-6---------6---------6------5---------5---------5-----|6--|
Ab|----8~----5~----|--6---------6---------6------3-3-3-3-3-3-3-3-3-3-3-3-3-|6--|
Eb|----------------|--4-4-4-4-4-4-4-4-4-4-4-4-4-----------------------------4-4|
Bb|----------------------------------------------------------------------------|
                        p.m....|  p.m....|  ...|   p.m....|  p.m....|  ...|   p                
    ________________________________________________  __________________
                                                    \| 2.               \ /1:24
Eb|--------------------------------------------------|-------------------------|
Bb|----------------------------------------------------------------------|-----|
Gb|-------------------------------------------------*|-------------------|-----|
Db|-------6--7---------7--8---------8---------8-----*|-6~----7~----8~----|-----|
Ab|-------6--8---------8--8---------8---------8------|-6~----8~----8~----|-----|
Eb|-4-4-4-4--5-5-5-5-5-5--6-6-6-6-6-6-6-6-6-6-6-6-6----4~----5~----6~----------|
    .m...|     p.m....|     p.m....|  p.m....|  ...|

    Verse 2    /1:39 Pre-Chorus 2        /1:45      
Eb|----------------------------------------------------------------------------|
Bb|-----------|-------------------------|--------------------------------------|
Gb|-Verse-----|-----Pre-Chorus-(1.)-----|----------------------------------5~--|
Db|-----------|-------------------------|----------------------------5~----5~--|
Ab|-----------|-------------------------|-15\\\\\\--1---2---5---2----5~----3~--|
Eb|---------------------------------------15\\\\\\--0---1---6---4----3~--------|
Bb|---------------------------------------15\\\\\\-----------------------------|

       /1:52 Riff 2   /2:04 Chorus 1                                     /2:20
Eb|----------------------------------------------------------------------------|
Bb|---|--------------|----------------------------------|---------------|------|
Gb|---|-----Riff-----|*-5~-------------------8----7----*|--------5~-----|*-----|
Db|---|--------------|*-5~-----6~-----3~-----8----8----*|-5~-----5~-----|*-----|
Ab|---|--------------|--3~-----6~-----3~-----6----5-----|-5~-----3~-----|------|
Eb|----------------------------4~-----1~------------------3~--------------1--1-|
                                                                          p.m.. 
                                                                          _____
    Bridge a                                                             |1.
Eb|----------------------------------------------------------------------|-----|
Bb|----------------------------------------------------------------------------|
Gb|----------------------------------------------------------------------|-----|
Db|----------------------------------------------------------------------|3----|
Ab|--------------------------------------------0-----------------2--1----|3---6|
Eb|--1--1-1-1-1-1--2-----1-1-1--1--1-1-1-1-1-3---1-----1--1-1-1--------4--1---6|
Bb|-------------------4-----------------------------1-------------------------4|
    .............|       p.m..............|            p.m.....|
    ___________  __________________
               \| 2.               \ /2:31
Eb|-------------|--------------------------------------------------------------|
Bb|---------------------------------|------------------------------------------|
Gb|------------*|-10---8---10-------|------------------------------------------|
Db|----3-------*|-10---8---10---9---|------------------------------------------|
Ab|----3---2----|-8----6---8----9---|-1-1-1-1-1-1-1-1-1--1--2-----1-1--0h1---1-|
Eb|----1---2----|---------------7---|--------------------------4---------------|
Bb|--------0-------------------------------------------------------------------|
                                      p.m..............|          ...|

Eb|----------------------------------------------------------------------------|
Bb|----------------------------------------------------------------------------|
Gb|---------------------------------3-------3-------3-2-1-0-------------3------|
Db|-----0------------------2--1-----3---6---3---2-----------4-3-2-1--2-----2~--|
Ab|--3-----1-----1--1-1-1--------4--1---6---1---2------------------------------|
Eb|-----------1-------------------------4-------0------------------------------|
Bb|----------------------------------------------------------------------------|
                    p.m..|

   /2:38 
Eb|----------------------------------------------------------------------------|
Bb|----------------------------------------------------------------------------|
Gb|-----------------------------------------------------10---8---10-------3-2-1|
Db|-----------------------------------------------------10---8---10---9--------|
Ab|------------------------0------------------2--1------8----6---8----9--------|
Eb|-1-1-1--1--1-1-1--1--3-----1-----1--1-1-1--------4-----------------7--------|
Bb|------------------------------1---------------------------------------------|
    p.m............|                   p.m..|
               
                                                                           /2:4
Eb|----------------------------------------------------------------------------|
Bb|----------------------2~-----------------------------------------------|----|
Gb|--0----------------------------------------3--------3------------------|----|
Db|----4-3-2-1h2p1---1-2------1~---2~---1--2-----3--3-----2--1--2~---1~---|----|
Ab|----------------4------------------------------------------------------|----|
Eb|-------------------------------------------------------------------------1--|
                                                                            p.m 
    7 
Eb|----------------------------------------------------------------------------|
Bb|----------------------------------------------------------------------------|
Gb|----------------------------------------------------------------------------|
Db|------------------------------------------------3---0---3---4---------------|
Ab|----------------------------------------------0---------1---2---3--3--3--3--|
Eb|-1--1--1--1-1-1--2-----1--1--1--1--1-1-1--1-3-------------------------------|
Bb|--------------------4-------------------------------------------------------|
    ..............|       p.m..............|                       p.m......... 
                        
                                                                          /2:59
Eb|----------------------------------------------------------------------------|
Bb|----------------------------------------------------------------------|-----|
Gb|----------------------------------------------------------------5-----|-5---|
Db|--------------------------------------------------5-----3~------3--3--|-5---|
Ab|-3-3-3--5-----3--3--3--3--3--3--5--6--7--6--5--3--3-----3~---------1--|-3-3-|
Eb|-----------6--------------------------------------------1~------------|-----|
Bb|----------------------------------------------------------------------------|
    .....|       p.m..........|                       *                      p.

    Bridge b
Eb|----------------------------------------------------------------------------|
Bb|----------------------------------------------------------------------------|
Gb|-------5---------5---------5------------------------5---------5---------5---|
Db|-------5---------5---------5------------------------5---------5---------5---|
Ab|-3-3-3-3-3-3-3-3-3-3-3-3-3-3-3-3-3-3-3-3-4-4-3-3----3-3-3-3-3-3-3-3-3-3-3-3-|
Eb|-------------------------------------------------6--------------------------|
    m....|  p.m...|   p.m....|  p.m...................|  p.m....|  p.m....|  p.

Eb|----------------------------------------------------------------------------|
Bb|----------------------------------------------------------------------------|
Gb|-------------------------------------5---------5---------5---------5--------|
Db|-------------------------------------5---------5---------5---------5--------|
Ab|-3-3-3-3-3-4-4-3-3----3-3-4-4-3-3----3-3-3-3-3-3-3-3-3-3-3-3-3-3-3-3-3-3-3-3|
Eb|-------------------6--------------6-----------------------------------------|
    m..................................|  p.m....|  p.m....|  p.m....|  p.m....

Eb|----------------------------------------------------------------------------|
Bb|----------------------------------------------------------------------------|
Gb|----------------5---------5---------5-----------------5---------------------|
Db|----------------5---------5---------5-----------------5---------------------|
Ab|-3-3-4-4-3-3----3-3-3-3-3-3-3-3-3-3-3-3-3-3-3---4-4-4-3---4-4-4--3h4p3------|
Eb|-------------6---------------------------------------------------------6p4--|
    ..............|  p.m....|  p.m....|  p.m............|    p.m..............| 

Eb|----------------------------------------------------------------------------|
Bb|----------------------------------------------------------------------------|
Gb|-------6--6--------8----------6------------5---5--6--------8--------6-------|
Db|-------6--6--------8----------6------------5---3--6-----8--8-----6--6-------|
Ab|-------4--4--4p3-4-6--------3-4--4--4h6h4--3------4-----8--6-----6--4-----3-|
Eb|-4p1-4------------------4h6-----------------------------6--------4----------|
        *    *      *          *    *         

Eb|----------------------------------------------------------------------------|
Bb|-----------|----------------------------------------------------------------|
Gb|-----------|----------------------------------------------------------------|
Db|-----------|----------------------------------------------------------------|
Ab|-----------|-3~-----3---------3------------------3--------------------------|
Eb|-6-4-3-1-3-|--------3---------3------------------3-----------------3-3-3-3-3|
Bb|-------------1-1-1--1--1-1-1--1--1-1-1----1-1-1--1--1-1-1--1-1-1---1-1-1-1-1|
                p.m................................................|    ...|  . 

Eb|----------------------------------------------------------------------------|
Bb|----------------------------------------------------------------------------|
Gb|----------------------------------------------------------------------------|
Db|----------------------------------------------------------------------------|
Ab|--------------------------------3-------------------------------------------|
Eb|-3-3-3--2--1-----1--------1--2-----------3-3-3-3-3---3-3-3-3-3-3-3---3-3-3-3|
Bb|-1-1-1--------4-----4--1-----------1-1-1-1-1-1-1-1---1-1-1-1-1-1-1---1-1-1-1|
    .|  .|                            .....|  ...|  .|    ...|  .|  .|    ...|

Eb|----------------------------------------------------------------------------|
Bb|----------------------------------------------------------------------------|
Gb|----------------------------------------------------------------------------|
Db|---------------------------------------7---8---7~---5-----5-----5-----5-----|
Ab|----------------------------------3~---5---6---5~---5-5-5-5-5-5-5-5-5-5-5-5-|
Eb|-3-3-3-3--2--1-----1--------1--2--------------------3-3-3-3-3-3-3-3-3-3-3-3-|
Bb|-1-1-1-1--------4-----4--1--------------------------------------------------|
    ...|  .|                                             ...|  ...|  ...|  ...|

Eb|----------------------------------------------------------------------------|
Bb|----------------------------------------------------------------------------|
Gb|----------------------------------------------------------------------------|
Db|-5---5----5---6-------6----------------------------------------------------5|
Ab|-5-5-5-5--5---6---8---6---3-----3-----3-----3-----3---3----3---5---6---5---5|
Eb|-3-3-3-3--3---4---8---4---3-3-3-3-3-3-3-3-3-3-3-3-3-3-3-3--3---5---6---5---3|
Bb|------------------6-------1-1-1-1-1-1-1-1-1-1-1-1-1-1-1-1--1---3---4---3----|
     .|  .|                    ...|  ...|  ...|  ...|  .|  .|

                                                    /3:45 Riff 3      /3:57 Cho
Eb|----------------------------------------------------------------------------|
Bb|------------------------------------------------|-----------------|---------|
Gb|------------------------------------------------|------Riff-------|-----Chor|
Db|-----5-----5-----5-----5---5----5---6-------6---|-----------------|---------|
Ab|-5-5-5-5-5-5-5-5-5-5-5-5-5-5-5--5---6---8---6---|-----------------|---------|
Eb|-3-3-3-3-3-3-3-3-3-3-3-3-3-3-3--3---4---8---4---|-----------------|---------|
Bb|----------------------------------------6-----------------------------------|
    ...|  ...|  ...|  ...|  .|  .|     

    rus 2                                     /4:10 Last Chorus
Eb|----------------------------------------------------------------------------|
Bb|--------|---------------------------------|---------------------------------|
Gb|-us-----|---------------------------------|*---------------7------5----4---*|
Db|--------|-5-------------------------------|*-7------3------7------5----5---*|
Ab|--------|-5-------------------------------|--7------3------5------3----2----|
Eb|--------|-3-3-3-3-3-3-3-3-3-3-3-3-3-3-3-3-|--5------1-----------------------|
Bb|----------------------------------------------------------------------------|
             p.m............................|

                                  /4:26 Ending
Eb|----------------------------------------------------------------------------|
Bb|------------------------------|---------------------------------------------|
Gb|------------------------------|---------------------------------------------|
Db|-2-----2------3----5----7~----|---------------------------------------------|
Ab|-2-----2------3----5----7~----|--0-0-0--0--0-0-0-0-0--1-----0-0-0--0--0-0-0-|
Eb|-0-----0------1----3----5~----|--------------------------3------------------|
Bb|----------------------------------------------------------------------------|
                                    p.m................|       p.m.............

Eb|---------------------------------------------------------------------------||
Bb|---------------------------------------------------------------------------||
Gb|-----------------------------------------2-------2---2---2-----the---------||
Db|--------------------------------1--0-----2---5---2---2---2----------end.---||
Ab|-0--0--2--4--2--0-----0--0-0-0--------3--0---5---0---0---0-----------------||
Eb|-------------------0-------------------------3-----------------------------||
Bb|---------------------------------------------------------------------------||
    .|                      p.m..|


---------------------------------------------------------------------------
=======================
=TABLATURE EXPLANATION=
=======================

* = palm mute

A.H. = Artificial Harmonic

pm..| = Palm mute

h = hammer on

p = pull off

/ = slide up

\ = slide down

~ = Vibrato

b() = Bend

x\ = Pick Slide

--------
--------
---12--- = Tremolo pick
----/---
----/---
----/---

---.---
--12--- = Staccato
-------
-------
-------

|     |
|     |
|*   *| = repeat from * to *
|*   *| 
|     |
|     |

* - also notes


----------------------------------------------------------
Tap to rate this tab
# A B C D E F G H I J K L M N O P Q R S T U V W X Y Z