Song name
# A B C D E F G H I J K L M N O P Q R S T U V W X Y Z

Sonata Arctica - Tonight I Dance Alone tab

Sonata Artica - Tonight I dance alone (SOLO)

Standard Tuning

|-------------------------------------------------------------------------|
|-------------------------------------------------------------------------|
|-------------------------------------------------------------------------|
|-13gb14-13-11~~~--13b14-13h14p13-11~~/9~~~~~-------9h11~~~-9~~~----------|
|----------------------------------------------9-11-----------------------|
|---------------------------------------------PM-PM-----------------------|

|---------------------------------QUARTER STEP---------------12-11b12-----|
|----------------------------------VIBRATO--------------------------------|
|------------------------13b14r13-13b14~~~~~~~~~~/9-11-11b13--------------|
|-13gb14-13-9/11-9~~~~---------------------------------HOLD---------------|
|-------------------------------------------------------------------------|
|-------------------------------------------------------------------------|

|-11b12--11-9--11b12r11-9h11p9--------------------------------------------|
|PRE-BENT---------------------12~~~~~~-10/12~~~~~~----14h16-16b17---------|
|--------------------------------------------------/16--------------------|
|-------------------------------------------------------------------------|
|-------------------------------------------------------------------------|
|-------------------------------------------------------------------------|

|-------------------------19b21(r19)-19p16-18b19(r18)-16------------------|
|-19b21(r19)-19p17-19~~~~------------------HOLD---------17----------------|
|---------------------------------------------------------16--------------|
|-----------------------------------------------------------18------------|
|-------------------------------------------------------------19p16-------|
|-------------------------------------------------------------------------|

|-------------------------------------------------------------------------|
|-19b21r19b21r19~~~-------------------------------------------------------|
|FULL-STEP-VIBRATO--------------------------------------------------------|
|-------------------------------------------------FADE-OUT----------------|
|----------------------------14h16~~~~14~~~16~~~~~~18~~~~-----------------|
|-------------------12/14-16----------------------------------------------|
Tap to rate this tab
# A B C D E F G H I J K L M N O P Q R S T U V W X Y Z