Song name
# A B C D E F G H I J K L M N O P Q R S T U V W X Y Z

Sonata Arctica - Tallulah tab

-------------------------------------------------------------------------------
                             TALLULAH - Sonata Arctica
-------------------------------------------------------------------------------
                                  [EASY VERSION]

Tuning: half-step down

INTRO
                                 _________________  ______________
                                [1                ][2             ]
e|--------------------------------------------------------------------|
B|-----1-----3-----8-----8-----------1-----3-----5--------1-----0-----|
G|---2-----4-----5-----5---5-------2-----4-----5--------2-----0-------|
D|-3-----5-----7-----7-------7---3-----5-----7--------3-----0---------|
A|--------------------------------------------------------------------|
E|--------------------------------------------------------------------|

e|-----------------------------|
B|--3---3---1---1---3---3---1--|
G|--2---2---2---2---2---2---2--|
D|----2---2---2---2---2---2----|
A|-----------------------------|
E|-----------------------------|

VERSE

e|-----------------------------3----------------------1---1---1---1---0---0---3---3--|
B|-----0h1---------0h1-----3-------1---1---1---0h1----3---3---3---3---1---1---3---3--|
G|---------2-----------2-----------0---0---0---0--------2-------2---2---0---0---0---0|
D|---2-------2---2-------2---2---2---2---2---2-----2--0-----2-3----------------------|
A|-0-----------0-------------------3----------------------------------3--------------|
E|----------------------------------------------------------------------------3------|
             [PLAY THIS 2 TIMES]
  
                    ________________    _______________
                   [1               ]  [2              ]
e|-------------------------------------------------------|
B|-1---1---3---3----1---1---1---0h1-----6---6---5---5----|
G|-2---2---4---4----2---2---2---2-------5---5---5---5----|
D|---3---3---5---5----2---2---2-----2-----7---7---7---7--|
A|-3-------5--------0-------------------7----------------|
E|-------------------------------------------------------|

   _______________________________
  [3                              ]
e|-0-----0---------------------------|------------------0---0---3---|
B|-----1---3---0-3-1-----1-----------|--1---1---1---1---1---1---3---|
G|---0-------0---------2---4-----4---|--2---2---2---2-----0---0---0-|
D|-------------------3---------5-----|----3---3---3---3-------------|
A|-3-------------------------5-------|--3---------------3-------3---|
E|---------3-------1-------3---------|------------------------------|

   [PLAY INTRO]
   [VERSE]


FIRST CHORUS

C      G
/ Tallulah,
     Dm Am     G
It's easier to live
 C         G
alone than fear the time it's
F G(III) F(V) G(VII)
over... 
C      G
/ TalluLah,
         Dm        Am      G
find the words and talk to me ,oh,
C      G
/ TalluLah,

This could be...[HERE YOU CAN FIGURE OUT] heaven

G(III): |3-5-5-4-3-3|
F(V): |5-8-7-5-6-5|
G(VII): |7-10-9-7-8-7|

Dm                        F                                    Am
I see you walking hand in hand with long-haired drummer of the band
                          C                                  Dm
In love with her or so it seems, he's dancing with my beauty queen
                           F                            Am
Don't even dare to say you hi, still swallowing the goodbye
                        G             Dm
But I know the feelings still alive - still alive

SOLO

e|---|----------3-1-0h1---1-0---------------------------|-3-12-10p8-5-|-5--5-7-8-12-10p8-10--8-|
B|---|-5--5p3-1---------1-----3---------3-1-0-----------|-------------|------------------------|
G|-2-|--------------------------2-2h4-5-------2-0---2-2-|-------------|------------------------|
D|---|--------------------------------------------2-----|-------------|------------------------|
A|---|--------------------------------------------------|-------------|------------------------|
E|---|--------------------------------------------------|-------------|------------------------|

F         G                 Am            
I lost my patience once, so do you punish me now
F           G            Am              
I'll always love you, no matter what you do
F            G              C    G         F     G(III)
I'll win you back for me if you give me  a chance
F            F                  F  G(III)     F(V)  G(VII)
But there is one thing you must uuuuuuuuunderstand

SECOND CHORUS

C(VIII)  G(VII)
/ Tallu--lah,
     Dm(V) Am(V) G(III)
It's easi--er to live
 C(III)    G(III)
alone than fear the time it's
F G(III) F(V) G(VII)
over... 
C      G
/ TalluLah,
         Dm        Am      G
find the words and talk to me ,oh,
C      G
/ TalluLah,
                 F G(III) F(V) G(VII)
This could be...
C      G
/ Tallulah,
     Dm Am     G
It's easier to live
 C         G
alone than fear the time it's
F G(III) F(V) G(VII)
over... 
C      G
/ TalluLah,
         Dm        Am      G
find the words and talk to me ,oh,
C      G
/ TalluLah,

This could be...[OUTRO]

C(VIII): |8-10-10-9-8-8|
Dm(V): |5-5-7-7-6-5|
Am(V): |5-7-7-5-5-5|
C(III): |3-3-5-5-5-3|

OUTRO

e|-------------------(5)---|
B|-----1-----3-----5-------|
G|---2-----4-----5---------|
D|-3-----5-----7-----------|
A|-------------------------|
E|-------------------------|

Guys thanks for watching!) Pls comment and enjoy!)

************************************

| /   slide up
| \   slide down
| h   hammer-on
| p   pull-off
| ~   vibrato
| +   harmonic
| x   Mute note
| b   Bend
| pb  Pre-bend
| br  Bend release
| pbr Pre-bend release
| brb Bend release bend

************************************
Tap to rate this tab
 
# A B C D E F G H I J K L M N O P Q R S T U V W X Y Z