Song name
# A B C D E F G H I J K L M N O P Q R S T U V W X Y Z

Sonata Arctica - San Sebastian tab

#----------------------------------PLEASE NOTE---------------------------------#
#This file is the author's own work and represents their interpretation of the #
#song. You may only use this file for private study, scholarship, or research. #
#------------------------------------------------------------------------------#

SAN SEBASTIAN (REVISITED)
As recorded by Sonata Arctica
(From the 2001 Album SILENCE)

Transcribed by A. Casanovas
	

Words by Tony Kakko Music by Sonata Arctica
Arranged by Sonata Arctica

Gtr I (E A D G B E) - 'Rhythm Guitar'
Gtr II (E A D G B E) - 'Lead Guitar'
Gtr III (E A D G B E) - 'Keyboard arranged for guitar'

 Intro
  Q=165
  F#5               C#5               A5                E5open
 4/4
  Gtr I
   W                 W                 W                 W
   |                 |                 |                 |
   /                 /                 /                 /

  Gtrs II, III
   Q.    Q.    Q     Q   Q   Q   Q     Q   Q   Q   Q     H     Q   Q
|-14----------14--|-12--11----------|---------12--17--|-16----14--16---|
|-------14--------|---------14--12--|-10--14----------|----------------|
|-----------------|-----------------|-----------------|----------------|
|-----------------|-----------------|-----------------|----------------|
|-----------------|-----------------|-----------------|----------------|
|-----------------|-----------------|-----------------|----------------|


  D5                 F#5                D5                  E5
   W                  W                  W                   W
   |                  |                  |                   |
   /                  /                  /                   /

   Q   Q   Q.    E    Q   Q   Q.    E    Q.    E  Q.    E    H     Q   Q
|-17--16--14----16-|-17--16--14----16-|-17----16-14-------|-------14--16---|
|------------------|------------------|----------------17-|-17-------------|
|------------------|------------------|-------------------|----------------|
|------------------|------------------|-------------------|----------------|
|------------------|------------------|-------------------|----------------|
|------------------|------------------|-------------------|----------------|


  F#5               C#5               A5                E5open
 4/4
   W                 W                 W                 W
   |                 |                 |                 |
   /                 /                 /                 /

   Q.    Q.    Q     Q   Q   Q   Q     Q   Q   Q   Q     H     Q   Q
|-14----------14--|-12--11----------|---------12--17--|-16----14--16---|
|-------14--------|---------14--12--|-10--14----------|----------------|
|-----------------|-----------------|-----------------|----------------|
|-----------------|-----------------|-----------------|----------------|
|-----------------|-----------------|-----------------|----------------|
|-----------------|-----------------|-----------------|----------------|


  D5                 F#5                D5                  E5
   W                  W                  W                   W
   |                  |                  |                   |
   /                  /                  /                   /

   Q   Q   Q.    E    Q   Q   Q.    E    Q.    E  Q.    E    W
|-17--16--14----16-|-17--16--14----16-|-17----16-14-------|-------|
|------------------|------------------|----------------17-|-17----|
|------------------|------------------|-------------------|-------|
|------------------|------------------|-------------------|-------|
|------------------|------------------|-------------------|-------|
|------------------|------------------|-------------------|-------|


   Verse 1
    F#5                             C#5
    Gtrs I, II
    PM----------------------------------------------------------|
    E S S S S S S S S S S S S S S   E S S S S S S S S S S S S S S
||--------------------------------|-------------------------------|
||o-------------------------------|-------------------------------|
||--------------------------------|-------------------------------|
||--------------------------------|-6-----------------------------|
||o-4-----------------------------|-4-4-4-4-4-4-4-5-4---4---------|
||--2-2-2-2-2-2-2-2-2-2-2-2-2-2-2-|-------------------7---7-5-4-5-|


  F#5                             C#5
  PM----------------------------------------------------------|
  E S S S S S S S S S S S S S S   E S S S S S S S S S S S S S S
|-------------------------------|-------------------------------|
|-------------------------------|-------------------------------|
|-------------------------------|-------------------------------|
|-------------------------------|-6-----------------------------|
|-4-----------------------------|-4-4-4-4-4-4-4-5-4---4---------|
|-2-2-2-2-2-2-2-2-2-2-2-2-2-2-2-|-------------------7---7-5-4-5-|


  D5                          A5
  PM--------------------------------------------------|
  E S S S S E S S S S E S S   E S S S S E S S S S E S S
|---------------------------|---------------------------|
|---------------------------|---------------------------|
|---------------------------|---------------------------|
|-7---------7---------7-----|---------------------------|
|-5-5-5-5-5-5-5-5-5-5-5-5-5-|-7---------7---------7-----|
|---------------------------|-5-5-5-5-5-5-5-5-5-5-5-5-5-|


  B5                          E5   E5B/Eb
  PM----------------------|
  E S S S S E S S S S E S S   Q.   E H
|---------------------------|--------------||
|---------------------------|-------------o||
|---------------------------|-9----9-8-----||
|---------------------------|-9----9-9-----||
|-9---------9---------9-----|-7----7-6----o||
|-7-7-7-7-7-7-7-7-7-7-7-7-7-|--------------||


   Bridge 1
    D5                          F#5IV
    PM--------------------------------------------------|
    E S S S S E S S S S E S S   E S S S S E S S S S E S S
||----------------------------|---------------------------|
||o---------------------------|---------------------------|
||----------------------------|-6---------6---------6-----|
||--7---------7---------7-----|-4-4-4-4-4-4-4-4-4-4-4-4-4-|
||o-5-5-5-5-5-5-5-5-5-5-5-5-5-|---------------------------|
||----------------------------|---------------------------|


                             1.
  E5                          A5VII       E/Ab
  PM------------------------------------------------|
  E S S S S E S S S S E S S   E S S S S E E S S S S E
|---------------------------|--------------------------||
|---------------------------|-------------------------o||
|---------------------------|-9---------9-9---------9--||
|-9---------9---------9-----|-7-7-7-7-7-7-6-6-6-6-6-6--||
|-7-7-7-7-7-7-7-7-7-7-7-7-7-|-------------------------o||
|---------------------------|--------------------------||


  2.
  C#5
  PM----------------------|
  E S S S S E S S S S E S S
|---------------------------|
|---------------------------|
|---------------------------|
|-6---------6---------6-----|
|-4-4-4-4-4-4-4-4-4-4-4-4-4-|
|---------------------------|


   Chorus 1
    F#5        C#5        A5         E5open
    W          W          W          W
||-----------|----------|----------|------|
||o----------|----------|----------|------|
||-----------|-6--------|----------|------|
||--4--------|-6--------|-7--------|-2----|
||o-4--------|-4--------|-7--------|-2----|
||--2--------|----------|-5--------|-0----|


  D5         F#5        D5         E5open
  W          W          W          W
|----------|----------|----------|-------||
|----------|----------|----------|------o||
|-7--------|----------|-7--------|-------||
|-7--------|-4--------|-7--------|-2-----||
|-5--------|-4--------|-5--------|-2----o||
|----------|-2--------|----------|-0-----||


 Verse 2
  F#5                             C#5
  Gtrs I, II
  PM----------------------------------------------------------|
  E S S S S S S S S S S S S S S   E S S S S S S S S S S S S S S
|-------------------------------|-------------------------------|
|-------------------------------|-------------------------------|
|-------------------------------|-------------------------------|
|-------------------------------|-6-----------------------------|
|-4-----------------------------|-4-4-4-4-4-4-4-5-4---4---------|
|-2-2-2-2-2-2-2-2-2-2-2-2-2-2-2-|-------------------7---7-5-4-5-|


  F#5                             C#5
  PM----------------------------------------------------------|
  E S S S S S S S S S S S S S S   E S S S S S S S S S S S S S S
|-------------------------------|-------------------------------|
|-------------------------------|-------------------------------|
|-------------------------------|-------------------------------|
|-------------------------------|-6-----------------------------|
|-4-----------------------------|-4-4-4-4-4-4-4-5-4---4---------|
|-2-2-2-2-2-2-2-2-2-2-2-2-2-2-2-|-------------------7---7-5-4-5-|


  D5                          A5
  PM--------------------------------------------------|
  E S S S S E S S S S E S S   E S S S S E S S S S E S S
|---------------------------|---------------------------|
|---------------------------|---------------------------|
|---------------------------|---------------------------|
|-7---------7---------7-----|---------------------------|
|-5-5-5-5-5-5-5-5-5-5-5-5-5-|-7---------7---------7-----|
|---------------------------|-5-5-5-5-5-5-5-5-5-5-5-5-5-|


  B5
  PM----------------------------------------|
  E S S S S E S S S S E S S   E E E E E E E E
|---------------------------|-----------------|
|---------------------------|-----------------|
|---------------------------|-----------------|
|---------------------------|-----------------|
|-9---------9---------9-----|-7-5-4---5-4-----|
|-7-7-7-7-7-7-7-7-7-7-7-7-7-|-------5-----5-4-|


  F#5                         C#5
  PM--------------------------------------------------|
  E S S S S E S S S S E S S   E S S S S E S S S S E S S
|---------------------------|---------------------------|
|---------------------------|---------------------------|
|---------------------------|---------------------------|
|---------------------------|-6---------6---------6-----|
|-4---------4---------4-----|-4-4-4-4-4-4-4-4-4-4-4-4-4-|
|-2-2-2-2-2-2-2-2-2-2-2-2-2-|---------------------------|


  F#5                         C#5
  PM--------------------------------------------------|
  E S S S S E S S S S E S S   E S S S S E S S S S E S S
|---------------------------|---------------------------|
|---------------------------|---------------------------|
|---------------------------|---------------------------|
|---------------------------|-6---------6---------6-----|
|-4---------4---------4-----|-4-4-4-4-4-4-4-4-4-4-4-4-4-|
|-2-2-2-2-2-2-2-2-2-2-2-2-2-|---------------------------|


  D5                          A5
  PM--------------------------------------------------|
  E S S S S E S S S S E S S   E S S S S E S S S S E S S
|---------------------------|---------------------------|
|---------------------------|---------------------------|
|---------------------------|---------------------------|
|-7---------7---------7-----|---------------------------|
|-5-5-5-5-5-5-5-5-5-5-5-5-5-|-7---------7---------7-----|
|---------------------------|-5-5-5-5-5-5-5-5-5-5-5-5-5-|


  B5                          E5          B/Eb
  PM--------------------------------------------------|
  E S S S S E S S S S E S S   E S S S S E E S S S S S S
|---------------------------|---------------------------|
|---------------------------|---------------------------|
|---------------------------|-----------9-8-------------|
|---------------------------|-9---------9-9-------------|
|-9---------9---------9-----|-7-7-7-7-7-7-6-6-6-6-6-6-6-|
|-7-7-7-7-7-7-7-7-7-7-7-7-7-|---------------------------|


   Bridge 2
    D5                          F#5IV
    PM--------------------------------------------------|
    E S S S S E S S S S E S S   E S S S S E S S S S E S S
||----------------------------|---------------------------|
||o---------------------------|---------------------------|
||----------------------------|-6---------6---------6-----|
||--7---------7---------7-----|-4-4-4-4-4-4-4-4-4-4-4-4-4-|
||o-5-5-5-5-5-5-5-5-5-5-5-5-5-|---------------------------|
||----------------------------|---------------------------|


                             1.
  E5                          A5VII       E/Ab
  PM------------------------------------------------|
  E S S S S E S S S S E S S   E S S S S E E S S S S E
|---------------------------|--------------------------||
|---------------------------|-------------------------o||
|---------------------------|-9---------9-9---------9--||
|-9---------9---------9-----|-7-7-7-7-7-7-6-6-6-6-6-6--||
|-7-7-7-7-7-7-7-7-7-7-7-7-7-|-------------------------o||
|---------------------------|--------------------------||


  2.
  C#5
  PM----------------------|
  E S S S S E S S S S E S S
|---------------------------|
|---------------------------|
|---------------------------|
|-6---------6---------6-----|
|-4-4-4-4-4-4-4-4-4-4-4-4-4-|
|---------------------------|


   Chorus 2
    F#5        C#5        A5         E5open
    W          W          W          W
||-----------|----------|----------|------|
||o----------|----------|----------|------|
||-----------|-6--------|----------|------|
||--4--------|-6--------|-7--------|-2----|
||o-4--------|-4--------|-7--------|-2----|
||--2--------|----------|-5--------|-0----|


  D5         F#5        D5         E5open
  W          W          W          W
|----------|----------|----------|-------||
|----------|----------|----------|------o||
|-7--------|----------|-7--------|-------||
|-7--------|-4--------|-7--------|-2-----||
|-5--------|-4--------|-5--------|-2----o||
|----------|-2--------|----------|-0-----||


 Harmony Solo 1
  Gtrs II, III
   S  S  S  S  S  S  S  S  S  S  S  S  S  S  S  S
|-13-10----10-13-10----10-13-10----10-15-12----12-|
|-------10----------10----------10----------13----|
|-------------------------------------------------|
|-------------------------------------------------|
|-------------------------------------------------|
|-------------------------------------------------|


   S  S  S  S  S  S  S  S  S  S  S  S  S  S  S  S
|-17-13----13-17-13----13-17-13----13-17-15-13----|
|-------13----------13----------13-------------17-|
|-------------------------------------------------|
|-------------------------------------------------|
|-------------------------------------------------|
|-------------------------------------------------|


   S  S  S  S  S  S  S  S  S  S  S  S  S  S  S  S
|-13-10----10-13-10----10-13-10----10-15-12----12-|
|-------11----------11----------11----------13----|
|-------------------------------------------------|
|-------------------------------------------------|
|-------------------------------------------------|
|-------------------------------------------------|


   S  S  S  S  S  S  S  S  S  S  S  S  S  S  S  S
|-17-13----13-17-13----13-17-12----12-17-12----12-|
|-------13----------13----------14----------14----|
|-------------------------------------------------|
|-------------------------------------------------|
|-------------------------------------------------|
|-------------------------------------------------|


   S  S  S  S  S  S  S  S  S  S  S  S  S  S  S  S
|-17-13----13-17-13----13-17-13----13-15-12----12-|
|-------15----------15----------15----------13----|
|-------------------------------------------------|
|-------------------------------------------------|
|-------------------------------------------------|
|-------------------------------------------------|


   S  S  S  S  S  S  S  S  S  S  S  S  S  S  S  S
|-20-17----17-20-17----17-20----17-20-18-17-------|
|-------18----------18-------18-------------20-18-|
|-------------------------------------------------|
|-------------------------------------------------|
|-------------------------------------------------|
|-------------------------------------------------|


   S  S  S  S  S  S  S  S  S S  S S  S S  S S    E E  E E  S  S  E  S  S  E
|-13-10----10-13-10----10-12-9----9-12-9----9-|-10--------------------------|
|-------11----------11---------10--------10---|----8-10-8----------10-12-14-|
|---------------------------------------------|-----------10-12-14----------|
|---------------------------------------------|-----------------------------|
|---------------------------------------------|-----------------------------|
|---------------------------------------------|-----------------------------|


  D5                                   E5
  Gtr I
   H.                                   Q
   |                                    |
   /                                    /

  Gtrs II, III
   S   S  S  S  S  S  S  S  S  S  S  S  S  S  S  S
|-13--10----10-13-10----10-13-10----10-15-12----12-|
|--------10----------10----------10----------13----|
|--------------------------------------------------|
|--------------------------------------------------|
|--------------------------------------------------|
|--------------------------------------------------|


  F5
   W
   |
   /

   S  S  S  S  S  S  S  S  S  S  S  S  S  S  S  S
|-17-13----13-17-13----13-17-13----13-17-15-13----|
|-------13----------13----------13-------------17-|
|-------------------------------------------------|
|-------------------------------------------------|
|-------------------------------------------------|
|-------------------------------------------------|


  Bb5
   W
   |
   /

   S  S  S  S  S  S  S  S  S  S  S  S  S  S  S  S
|-13-10----10-13-10----10-13-10----10-15-12----12-|
|-------11----------11----------11----------13----|
|-------------------------------------------------|
|-------------------------------------------------|
|-------------------------------------------------|
|-------------------------------------------------|


  C5                      A/C#
   H                       H
   |                       |
   /                       /

   S  S  S  S  S  S  S  S  S  S  S  S  S  S  S  S
|-17-13----13-17-13----13-17-12----12-17-12----12-|
|-------13----------13----------14----------14----|
|-------------------------------------------------|
|-------------------------------------------------|
|-------------------------------------------------|
|-------------------------------------------------|


  D5                                   E5
   H.                                   Q
   |                                    |
   /                                    /

   S   S  S  S  S  S  S  S  S  S  S  S  S  S  S  S
|-17--13----13-17-13----13-17-13----13-15-12----12-|
|--------15----------15----------15----------13----|
|--------------------------------------------------|
|--------------------------------------------------|
|--------------------------------------------------|
|--------------------------------------------------|


  F5
   W
   |
   /

   S  S  S  S  S  S  S  S  S  S  S  S  S  S  S  S
|-20-17----17-20-17----17-20----17-20-18-17-------|
|-------18----------18-------18-------------20-18-|
|-------------------------------------------------|
|-------------------------------------------------|
|-------------------------------------------------|
|-------------------------------------------------|


  Bb5                     A5
                                               3/4
  Gtrs II, III
   S  S  S  S  S  S  S  S  S S  S S  S S  S S    E E  E E  S  S  E
|-13-10----10-13-10----10-12-9----9-12-9----9-|-10-----------------|
|-------11----------11---------10--------10---|----8-10-8----------|
|---------------------------------------------|-----------10-12-14-|
|---------------------------------------------|--------------------|
|---------------------------------------------|--------------------|
|---------------------------------------------|--------------------|
|
| Gtr I
|  H                       H                     E E  E E  S  S  E
|---------------------------------------------|--------------------|
|---------------------------------------------|--------------------|
|---------------------------------------------|--------------------|
|--8-----------------------7------------------|--------------------|
|--8-----------------------7------------------|--5-----------------|
|--6-----------------------5------------------|----3--5-3--1--3--5-|


  Eb5
 4/4
   H     +E   E  E  E    Q   Q   Q   Q
|------------18-15----|-----------------|
|-11----(11)-------16-|-15--14--15--17--|
|---------------------|-----------------|
|---------------------|-----------------|
|---------------------|-----------------|
|---------------------|-----------------|
|
|  H     +E   E  E  E    Q   Q   Q   Q
|---------------------|-----------------|
|---------------------|-----------------|
|--8-----(8)----------|-----------------|
|--8-----(8)--8--5----|-----------------|
|--6-----(6)--------6-|--5---4---5---7--|
|---------------------|-----------------|


 Guitar Solo
  A5open
  Gtr I
   S S S  S S S  S S S S  S S  S S  S S
   | | |  | | |  | | | |  | |  | |  | |
   / / /  / / /  / / / /  / /  / /  / /

  Gtr II
   S S S  S S S  S S S S  S S  S S  S S
|-17-0-0-15-0-0-13-0-0-0-18-0-17-0-15-0-|
|---------------------------------------|
|---------------------------------------|
|---------------------------------------|
|---------------------------------------|
|---------------------------------------|


   S S  S S  S S  S S  S S  S S  S S  S S
   | |  | |  | |  | |  | |  | |  | |  | |
   / /  / /  / /  / /  / /  / /  / /  / /

   S S  S S  S S  S S  S S  S S  S S  S S
|-13-0-17-0-15-0-13-0-12-0-15-0-13-0-12-0-|
|-----------------------------------------|
|-----------------------------------------|
|-----------------------------------------|
|-----------------------------------------|
|-----------------------------------------|


  D5
   S  S  S  S  S  S  S  S  S  S  S  S  S  S  S  S
   |  |  |  |  |  |  |  |  |  |  |  |  |  |  |  |
   /  /  /  /  /  /  /  /  /  /  /  /  /  /  /  /

   S  S  S  S  S  S  S  S  S  S  S  S  S  S  S  S
|-------------------18-------18-20----18-20-22-20-|
|-18-20-22-18-20-22----20-22-------22-------------|
|-------------------------------------------------|
|-------------------------------------------------|
|-------------------------------------------------|
|-------------------------------------------------|


   S  S  S  S  S  S  S  S  S  S  S  S  S  S  S  S
   |  |  |  |  |  |  |  |  |  |  |  |  |  |  |  |
   /  /  /  /  /  /  /  /  /  /  /  /  /  /  /  /

   S  S  S  S  S  S  S  S  S  S  S  S  S  S  S  S
|-18----------------------------------------------|
|----22-20-18-17----------17----------------------|
|----------------19-18-19----19-18-15-14----------|
|----------------------------------------17-15-14-|
|-------------------------------------------------|
|-------------------------------------------------|


 Keyboard Solo
  A5open
  Gtr I
   S    S S S  S  S   S    S  S  S  S  S  S  S  S  S
   |    | | |  |  |   |    |  |  |  |  |  |  |  |  |
   /    / / /  /  /   /    /  /  /  /  /  /  /  /  /

  Gtr II
   >
   Q.                +E       H
|----------------------------------------------------|
|----------------------------------------------------|
|-14----------------(14)\----------------------------|
|----------------------------------------------------|
|----------------------------------------------------|
|----------------------------------------------------|
|
| Gtr III
|  Q           S  S   S    S  S  S  S  S  S  S  S  S
|-15b17-------15-13--12---13-15-17-18-17-15-13-12-13-|
|----------------------------------------------------|
|----------------------------------------------------|
|----------------------------------------------------|
|----------------------------------------------------|
|----------------------------------------------------|


   S  S  S  S S  S  S  S  S  S S S S    S S S
   |  |  |  | |  |  |  |  |  | | | |    | | |
   /  /  /  / /  /  /  /  /  / / / /    / / /

   W
|---------------------------------------------|
|---------------------------------------------|
|---------------------------------------------|
|---------------------------------------------|
|---------------------------------------------|
|---------------------------------------------|
|
|                                  ~~~~
|  S  S  S  S S  S  S  S  S  S S S Q
|-15-13-12-10-9-10-12-13-12-10-9-8------------|
|----------------------------------8b10-------|
|---------------------------------------------|
|---------------------------------------------|
|---------------------------------------------|
|---------------------------------------------|


  D5
   S    S S S  S  S S  S  S  S  S  S  S  S  S  S
   |    | | |  |  | |  |  |  |  |  |  |  |  |  |
   /    / / /  /  / /  /  /  /  /  /  /  /  /  /

   Q           S  S S  S  S  S  S  S  S  S  S  S
|-11b13-------12-10-9-10-12-13-15-17-18-17-15-13-|
|------------------------------------------------|
|------------------------------------------------|
|------------------------------------------------|
|------------------------------------------------|
|------------------------------------------------|


   S  S  S  S    S S S  S     S  S  S  S  S    S S S
   |  |  |  |    | | |  |     |  |  |  |  |    | | |
   /  /  /  /    / / /  /     /  /  /  /  /    / / /

            ~~~~~                         ~~~~~
   S  S  S  Q           E        S  S  S  Q
|-17-19-22-22b24-------22pb24r==22-21-19-19b21-------|
|----------------------------------------------------|
|----------------------------------------------------|
|----------------------------------------------------|
|----------------------------------------------------|
|----------------------------------------------------|


 Harmony Solo 2
  G5                      A/C#
  Gtr I
   H                       H
   |                       |
   /                       /

  Gtrs II, III
   S  S  S  S  S  S  S  S  S  S  S  S  S  S  S  S
|-18-20-18-17-18-17-15-17-15----------------15-17-|
|----------------------------18-17-15-17-18-------|
|-------------------------------------------------|
|-------------------------------------------------|
|-------------------------------------------------|
|-------------------------------------------------|


  D5                      Bb5
   H                       H
   |                       |
   /                       /

   S  S  S  S  S  S  S  S  S  S  S  S  S  S  S  S
|-18-15-17-18-17-15-17-15-------------------------|
|-------------------------18-20-18-17-15-14-15-17-|
|-------------------------------------------------|
|-------------------------------------------------|
|-------------------------------------------------|
|-------------------------------------------------|


  Eb5                     A5
   H                       H
   |                       |
   /                       /

   S  S  S  S  S  S  S  S  S  S  S  S  S  S  S  S
|-------------------------------------------------|
|-18-20-22-18-20-22-20-18-20-18-16-18-16-15-14-15-|
|-------------------------------------------------|
|-------------------------------------------------|
|-------------------------------------------------|
|-------------------------------------------------|


  D5                   D/F#
   H                    H
   |                    |
   /                    /

   S  S  S  S  S  S  E  S  S  S  S  S  S  E
|----------17-18-17-18-17-15-17-------------|
|-17-18-20----------------------20-18-20-18-|
|-------------------------------------------|
|-------------------------------------------|
|-------------------------------------------|
|-------------------------------------------|


  G5                      A/C#
   H                       H
   |                       |
   /                       /

   S  S  S  S  S  S  S  S  S  S  S  S  S  S  S  S
|-18-20-18-17-18-17-15-17-15----------------15-17-|
|----------------------------18-17-15-17-18-------|
|-------------------------------------------------|
|-------------------------------------------------|
|-------------------------------------------------|
|-------------------------------------------------|


  D5                      Bb5
   H                       H
   |                       |
   /                       /

   S  S  S  S  S  S  S  S  S  S  S  S  S  S  S  S
|-18-15-17-18-17-15-17-15-------------------------|
|-------------------------18-20-18-17-15-14-15-17-|
|-------------------------------------------------|
|-------------------------------------------------|
|-------------------------------------------------|
|-------------------------------------------------|


  Eb5                     A5
   H                       H
   |                       |
   /                       /

   S  S  S  S  S  S  S  S  S  S  S  S  S  S  S  S
|-------------------------------------------------|
|-18-20-22-18-20-22-20-18-20-18-16-18-16-15-14-15-|
|-------------------------------------------------|
|-------------------------------------------------|
|-------------------------------------------------|
|-------------------------------------------------|


  D5                   D/F#
   H                    H
   |                    |
   /                    /

   S  S  S  S  S  S  E  S  S  S  S  S  S  E
|----------17-18-17-18-17-15-17-------------|
|-17-18-20----------------------20-18-20-18-|
|-------------------------------------------|
|-------------------------------------------|
|-------------------------------------------|
|-------------------------------------------|


  Eb5
 3/4
  Gtr I
   H.
   |
   /

  Gtr III
   S   S  S  S  S  S  S  S  S  S  S  S
|-17--13----13-------------------------|
|--------15----15----------------------|
|-----------------14----14-------------|
|--------------------15----15-------12-|
|-----------------------------17-12----|
|--------------------------------------|


                                         Bb5 A5 A5
  +H.                                     Q  Q  Q
   |                                      |  |  |
   /                                      /  /  /

                                          ~~
   S   S  S  S  S  S  S  S  S  S  S  S    Q  Q  Q
|--------------------------10-13-17-22-|-17--------|
|-----------------------10-------------|-----------|
|--------------------10----------------|-----------|
|-----------------12-------------------|-----------|
|-12-----------12----------------------|-----------|
|-----13-10-13-------------------------|-----------|


   Verse 3
    F#5                             C#5
   4/4
    Gtrs I, II
    PM----------------------------------------------------------|
    E S S S S S S S S S S S S S S   E S S S S S S S S S S S S S S
||--------------------------------|--------------------------------|
||o-------------------------------|--------------------------------|
||--------------------------------|--------------------------------|
||--------------------------------|-6------------------------------|
||o-4-----------------------------|-4-4-4-4-4-4-4-5-4---4----------|
||--2-2-2-2-2-2-2-2-2-2-2-2-2-2-2-|-------------------7---7-5-4-5--|


  F#5                             C#5
  PM----------------------------------------------------------|
  E S S S S S S S S S S S S S S   E S S S S S S S S S S S S S S
|-------------------------------|-------------------------------|
|-------------------------------|-------------------------------|
|-------------------------------|-------------------------------|
|-------------------------------|-6-----------------------------|
|-4-----------------------------|-4-4-4-4-4-4-4-5-4---4---------|
|-2-2-2-2-2-2-2-2-2-2-2-2-2-2-2-|-------------------7---7-5-4-5-|


  D5                          A5
  PM--------------------------------------------------|
  E S S S S E S S S S E S S   E S S S S E S S S S E S S
|---------------------------|---------------------------|
|---------------------------|---------------------------|
|---------------------------|---------------------------|
|-7---------7---------7-----|---------------------------|
|-5-5-5-5-5-5-5-5-5-5-5-5-5-|-7---------7---------7-----|
|---------------------------|-5-5-5-5-5-5-5-5-5-5-5-5-5-|


  B5                          E5   E5B/Eb
  PM----------------------|
  E S S S S E S S S S E S S   Q.   E H
|---------------------------|--------------||
|---------------------------|-------------o||
|---------------------------|-9----9-8-----||
|---------------------------|-9----9-9-----||
|-9---------9---------9-----|-7----7-6----o||
|-7-7-7-7-7-7-7-7-7-7-7-7-7-|--------------||


   Bridge 3
    D5                          F#5IV
    PM--------------------------------------------------|
    E S S S S E S S S S E S S   E S S S S E S S S S E S S
||----------------------------|---------------------------|
||o---------------------------|---------------------------|
||----------------------------|-6---------6---------6-----|
||--7---------7---------7-----|-4-4-4-4-4-4-4-4-4-4-4-4-4-|
||o-5-5-5-5-5-5-5-5-5-5-5-5-5-|---------------------------|
||----------------------------|---------------------------|


                             1.
  E5                          A5VII       E/Ab
  PM------------------------------------------------|
  E S S S S E S S S S E S S   E S S S S E E S S S S E
|---------------------------|--------------------------||
|---------------------------|-------------------------o||
|---------------------------|-9---------9-9---------9--||
|-9---------9---------9-----|-7-7-7-7-7-7-6-6-6-6-6-6--||
|-7-7-7-7-7-7-7-7-7-7-7-7-7-|-------------------------o||
|---------------------------|--------------------------||


  2.
  C#5
  PM----------------------|
  E S S S S E S S S S E S S
|---------------------------|
|---------------------------|
|---------------------------|
|-6---------6---------6-----|
|-4-4-4-4-4-4-4-4-4-4-4-4-4-|
|---------------------------|


 Drum Fill
  C#5
  PM
  E E H.        W
|-------------|------|
|-------------|------|
|-------------|------|
|-6-----------|------|
|-4-----------|------|
|-------------|------|


   Chorus 3
    G5         D5         Bb5        F5/C
    W          W          W           W
||-----------|----------|----------|-------|
||o----------|----------|----------|-------|
||-----------|-7--------|----------|-10----|
||--5--------|-7--------|-8--------|-10----|
||o-5--------|-5--------|-8--------|--8----|
||--3--------|----------|-6--------|--8----|


  Eb5/Bb     G5/D        Eb5/Bb     F5/C
  W           W          W           W     4x
|----------|-----------|----------|--------||
|----------|-----------|----------|-------o||
|-8--------|-12--------|-8--------|-10-----||
|-8--------|-12--------|-8--------|-10-----||
|-6--------|-10--------|-6--------|--8----o||
|-6--------|-10--------|-6--------|--8-----||


  G5
  W          +W           +W           +W
|----------|------------|------------|--------*|
|----------|------------|------------|--------*|
|----------|------------|------------|--------*|
|-5--------|-(5)--------|-(5)--------|-(5)----*|
|-5--------|-(5)--------|-(5)--------|-(5)----*|
|-3--------|-(3)--------|-(3)--------|-(3)----*|



Duration Legend
---------------
W - whole; H - half; Q - quarter; E - 8th; S - 16th; T - 32nd; X - 64th; a - acciaccatura
+ - note tied to previous; . - note dotted; .. - note double dotted
Uncapitalized letters represent notes that are staccato (1/2 duration)
Irregular groupings are notated above the duration line
Duration letters will always appear directly above the note/fret number it represents the
duration for.  Duration letters with no fret number below them represent rests.  Multi-
bar rests are notated in the form Wxn, where n is the number of bars to rest for.  Low
melody durations appear below the staff

Tablature Legend
----------------
 h   - hammer-on
 p   - pull-off
 b   - bend
 pb  - pre-bend
 r   - bend release (if no number after the r, then release immediately)
 /\  - slide into or out of (from/to "nowhere")
 s   - legato slide
 S   - shift slide
 - natural harmonic
[n]  - artificial harmonic
n(n) - tapped harmonic
 ~   - vibrato
 tr  - trill
 T   - tap
 TP  - trem. picking
 PM  - palm muting
\n/  - tremolo bar dip; n = amount to dip
 \n  - tremolo bar down
 n/  - tremolo bar up
/n\  - tremolo bar inverted dip
 =   - hold bend; also acts as connecting device for hammers/pulls
 <> - volume swell (louder/softer)
 x   - on rhythm slash represents muted slash
 o   - on rhythm slash represents single note slash

Misc Legend
-----------
 |  - bar
||  - double bar
||o - repeat start
o|| - repeat end
*|  - double bar (ending)
 :  - bar (freetime)
 $  - Segno
 &  - Coda
Tempo markers -  = BPM(8/16=s8/s16), where s8 = swing 8ths, s16 = swing 16ths

Tap to rate this tab
# A B C D E F G H I J K L M N O P Q R S T U V W X Y Z