Song name
# A B C D E F G H I J K L M N O P Q R S T U V W X Y Z

Sonata Arctica - Weballergy tab

#----------------------------------PLEASE NOTE---------------------------------#
#This file is the author's own work and represents their interpretation of the #
#song. You may only use this file for private study, scholarship, or research. #
#------------------------------------------------------------------------------#

WEBALLERGY
As recorded by Sonata Arctica
(From the 2001 Album SILENCE)

Transcribed by Ivan - (peekaboo104@hotmail.com)
	

Words and Music by Toni Kakko

Gtr I (Eb Ab Db Gb Bb Eb) - 'Untitled'
Gtr II (Eb Ab Db Gb Bb Eb) - 'Untitled'
Gtr III (Eb Ab Db Gb Bb Eb) - 'Strings I'
Gtr IV (Eb Ab Db Gb Bb Eb) - 'Lead Synth'
Gtr V (Eb Ab Db Gb Bb Eb) - 'Harpsichord'
Gtr VI (Eb Ab Db Gb Bb Eb) - 'Strings II'

   Intro
    Moderately Fast Q=165
    Eb5                  Bb5             C5
   4/4
    Gtrs I, II
     W                    W              W
||---------------------|---------------|--------------|
||o--------------------|---------------|--------------|
||---------------------|---------------|--------------|
||---8-----------------|---------------|-5------------|
||o--6-----------------|--8------------|-3------------|
||---------------------|--6------------|--------------|
|
|   Gtr III
|    H      Q   Q         H     Q   Q    H     Q   Q
||--11-----11--13------|-10----10--11--|-8----10--11--|
||o--------------------|---------------|--------------|
||---8------8--10------|--7-----7---8--|-5-----7---8--|
||---------------------|---------------|--------------|
||o--6------6---8------|--5-----5---6--|-3-----5---6--|
||---------------------|---------------|--------------|
|    H      Q   Q         H     Q   Q    H     Q   Q
|
|   Gtr VI
|    H.        +E  S S    W              W
||-----------------1---|---------------|--------------|
||o--4---------(4)---4-|--3------------|-4------------|
||---0---------(0)-----|---------------|-0------------|
||---------------------|--3------------|--------------|
||o--1---------(1)-----|--1------------|-3------------|
||---------------------|---------------|--------------|


  Ab5   Eb/G     F5            Bb5
         ~~~
   H     H        W             W
|--------------|-------------|--------------||
|--------------|-------------|-------------o||
|--------------|-------------|--------------||
|--------------|-------------|--3-----------||
|--6----(6)----|--3----------|--1----------o||
|--4-----3-----|--1----------|--------------||
|
|  H     H        H     H       H     H
|-16----15-----|-13----11----|-11----10-----||
|--------------|-------------|-------------o||
|-13----12-----|-10-----8----|--8-----7-----||
|--------------|-------------|--------------||
|-11----10-----|--8-----6----|--6-----5----o||
|--------------|-------------|--------------||
|  H     H        H     H       H     H
|
|  H     H        H     H       H     H
|--4-----3-----|--1----------|--------------||
|--1-----------|--------4----|--4-----3----o||
|--------3-----|--1-----1----|--------------||
|--1-----1-----|--3----------|--3-----3-----||
|--------------|--------3----|--1-----1----o||
|--------------|-------------|--------------||


   1st and 2nd Verses
    A5         E5         F5         C5   G/B
    W          W          W          H    H
||-----------|----------|----------|-----------|
||o----------|----------|----------|-----------|
||-----------|----------|----------|-----------|
||--2--------|----------|----------|-5----5----|
||o-0--------|-2--------|-3--------|-3----2----|
||-----------|-0--------|-1--------|-----------|


  A5         C5         G5         C5   G/B
  W          W          W          H    H
|----------|----------|----------|-----------||
|----------|----------|----------|-----------||
|----------|----------|----------|-----------||
|-2--------|-5--------|----------|-5----5----||
|-0--------|-3--------|-5--------|-3----2----||
|----------|----------|-3--------|-----------||


  A5         E5         F5                C5         G/B
                           PM----|           PM----|
  W          W          Q  S S S S H      Q  S S S S H
|----------|----------|-----------------|-----------------|
|----------|----------|-----------------|-----------------|
|----------|----------|-----------------|-----------------|
|-2--------|----------|-----------------|-5----------5----|
|-0--------|-2--------|-3----------3----|-3--3-3-3-3-2----|
|----------|-0--------|-1--1-1-1-1-1----|-----------------|


  A5         C5         G5                C5   G5
                           PM----|
  W          W          Q  S S S S H      H    H
|----------|----------|-----------------|-----------||
|----------|----------|-----------------|-----------||
|----------|----------|-----------------|-----------||
|-2--------|-5--------|-----------------|-5---------||
|-0--------|-3--------|-5----------5----|-3----5----||
|----------|----------|-3--3-3-3-3-3----|------3----||


 Bridge
  $
  PM-----------------------------------------------------------------
  S S S S S S S S S S S S S S S S   S S S S S S S S S S S S S S S S
|---------------------------------|---------------------------------|
|---------------------------------|---------------------------------|
|---------------------------------|---------------------------------|
|-------------4-4-------------4-4-|---------------------------------|
|-2-2-4-4-5-5-----2-2-4-4-5-5-----|-0-0-0-0-0-0-0-0-0-0-0-0-0-0-0-0-|
|---------------------------------|---------------------------------|
|
| Gtr V
| S S S S S S S S S S S S S S S S   S S S S S S S S S S S S S S S S
|---------------------------------|---0-------0-------0-------0-----|
|---3-------3-------3-------3-----|-2---2---2---2---2---2---2---2---|
|-4---4---4---4---4---4---4---4---|-------2-------2-------2-------2-|
|-------4-------4-------4-------4-|---------------------------------|
|---------------------------------|---------------------------------|
|---------------------------------|---------------------------------|


                                    D5              A/C#
 -------------------------------|           PM----|         PM----|
  S S S S S S S S S S S S S S S S   Q       S S S S Q       S S S S
|---------------------------------|------------------------------------|
|---------------------------------|------------------------------------|
|---------------------------------|------------------------------------|
|---------4-4-7-7---------4-4-7-7-|-7---------------7------------------|
|-5-5-7-7---------5-5-7-7---------|-5-------5-5-5-5-4-------4-4-4-4----|
|---------------------------------|------------------------------------|
|
| S S S S S S S S S S S S S S S S   S S S S S S S S S S S S S S S S
|---2-------2-------2-------2-----|---2-------2-------0-------0--------|
|-3---3---3---3---3---3---3---3---|-3---3---3---3---2---2---2---2------|
|-------2-------2-------2-------2-|-------2-------2-------2-------2----|
|---------------------------------|------------------------------------|
|---------------------------------|------------------------------------|
|---------------------------------|------------------------------------|


  PM-----------------------------------------------------------------
  S S S S S S S S S S S S S S S S   S S S S S S S S S S S S S S S S
|---------------------------------|---------------------------------|
|---------------------------------|---------------------------------|
|---------------------------------|---------------------------------|
|-------------4-4-------------4-4-|---------------------------------|
|-2-2-4-4-5-5-----2-2-4-4-5-5-----|-0-0-0-0-0-0-0-0-0-0-0-0-0-0-0-0-|
|---------------------------------|---------------------------------|
|
| S S S S S S S S S S S S S S S S   S S S S S S S S S S S S S S S S
|---------------------------------|---0-------0-------0-------0-----|
|---3-------3-------3-------3-----|-2---2---2---2---2---2---2---2---|
|-4---4---4---4---4---4---4---4---|-------2-------2-------2-------2-|
|-------4-------4-------4-------4-|---------------------------------|
|---------------------------------|---------------------------------|
|---------------------------------|---------------------------------|


                                    E5    G5
 -------------------------------|
  S S S S S S S S S S S S S S S S   H     H
|---------------------------------|----------------||
|---------------------------------|---------------o||
|---------------------------------|----------------||
|---------4-4-7-7---------4-4-7-7-|----------------||
|-5-5-7-7---------5-5-7-7---------|-2-----5-------o||
|---------------------------------|-0-----3--------||
|
| S S S S S S S S S S S S S S S S   Q  Q  Q  Q
|---2-------2-------2-------2-----|-0--0--3--3-----||
|-3---3---3---3---3---3---3---3---|-0--0--0--3----o||
|-------2-------2-------2-------2-|-0--0--7--4-----||
|---------------------------------|----------------||
|---------------------------------|---------------o||
|---------------------------------|----------------||


   Chorus
    $$
    C5         G5         A5         F5
    W          W          W           W
||-----------|----------|----------|-------|
||o----------|----------|----------|-------|
||-----------|----------|----------|-------|
||--5--------|----------|-2--------|-10----|
||o-3--------|-5--------|-0--------|--8----|
||-----------|-3--------|----------|-------|


            1.           2.
    To Coda
    To Coda
  D5         G5           G5
  W          W            W
|----------|-----------||------||
|----------|----------o||------||
|----------|-----------||------||
|-7--------|-----------||------||
|-5--------|-5--------o||-5----||
|----------|-3---------||-3----||


   Guitar Break
    Gtrs I, II
    PM----|    PM----|      PM-------------------------------
    S S S S q  S S S S q    S S S S S S S S S S S S S S S S
||------------------------|---------------------------------|
||o-----------------------|---------------------------------|
||------------------------|---------------------------------|
||------------------------|---------------------------------|
||o--------------------2--|-------------------------2-------|
||--5-2-2-2-4--5-2-2-2----|-5-2-2-2-4-2-2-2-5-2-2-2---4-4-4-|
|
|   Gtr V
|   S S S S q  S S S S q    S S S S S S S S S S S S S S S S
||------------------------|---------------------------------|
||o--------------------0--|-------------------------0-------|
||--2-------1--2----------|-2-------1-------2---------1-1-1-|
||----4-4-4------4-4-4----|---4-4-4---4-4-4---4-4-4---------|
||o-----------------------|---------------------------------|
||------------------------|---------------------------------|


 -------|    PM----|      PM----------------------------|
  S S S S q  S S S S q    S S S S S S S S S S S S S S S S
|-----------------------|------------------------------------|
|-----------------------|------------------------------------|
|-----------------------|------------------------------------|
|-----------------------|------------------------------------|
|-4-0-0-0-2--4-0-0-0-5--|-4-0-0-0-2-0-0-0-4-0-0-0-2----------|
|-----------------------|---------------------------4-4-4----|
|
| S S S S q  S S S S q    S S S S S S S S S S S S S S S S
|-----------------------|------------------------------------|
|-2-------0--2-------3--|-2-------0-------2-------0----------|
|---2-2-2------2-2-2----|---2-2-2---2-2-2---2-2-2---1-1-1----|
|-----------------------|------------------------------------|
|-----------------------|------------------------------------|
|-----------------------|------------------------------------|


  PM----|    PM----|      PM-------------------------------
  S S S S q  S S S S q    S S S S S S S S S S S S S S S S
|-----------------------|---------------------------------|
|-----------------------|---------------------------------|
|-----------------------|---------------------------------|
|-----------------------|---------------------------------|
|--------------------2--|-------------------------2-------|
|-2-2-2-2-4--5-2-2-2----|-5-2-2-2-4-2-2-2-5-2-2-2---4-4-4-|
|
| S S S S q  S S S S q    S S S S S S S S S S S S S S S S
|-----------------------|---------------------------------|
|--------------------0--|-------------------------0-------|
|-2-------1--2----------|-2-------1-------2---------1-1-1-|
|---4-4-4------4-4-4----|---4-4-4---4-4-4---4-4-4---------|
|-----------------------|---------------------------------|
|-----------------------|---------------------------------|


                         1.
                                             F#/Bb
 -------|    PM----|      PM------------|
  S S S S q  S S S S q    S S S S S S S S q  Q
|-----------------------|-------------------------||
|-----------------------|-------------------------||
|-----------------------|-------------------------||
|-----------------------|--------------------4----||
|-4-0-0-0-2--4-0-0-0-5--|-4-0-0-0-2-0-0-0-4--1----||
|-----------------------|-------------------------||
|
| S S S S q  S S S S q    S S S S S S S S q  Q
|-----------------------|-------------------------||
|-2-------0--2-------3--|-2-------0-------2-------||
|---2-2-2------2-2-2----|---2-2-2---2-2-2---------||
|-----------------------|--------------------4----||
|-----------------------|--------------------1----||
|-----------------------|-------------------------||


 Guitar Solo I
  B5                        C5
  Gtr I
   E  E  E  E  E  E  E  E    Q.       +E   Q   S  +S   S  S
|-------------------14----|-19b20====(19)-19--19r(19)-17h19-|
|-------14h15----------17-|---------------------------------|
|-------------14h16-------|---------------------------------|
|----16-------------------|---------------------------------|
|-14----------------------|---------------------------------|
|-------------------------|---------------------------------|
|
| Gtr II
|  W                         W
|-------------------------|---------------------------------|
|-------------------------|---------------------------------|
|-------------------------|---------------------------------|
|--4----------------------|--5------------------------------|
|--2----------------------|--3------------------------------|
|-------------------------|---------------------------------|


  C5
   |------6-------|  |------6-------|  |------6-------|  |------6-------|
   S  S  S  S  S  S  S  S  S  S  S  S  S  S  S  S  S  S  S  S  S  S  S  S
|-20-19-17-------------------------------------------------------17---------|
|----------20-19-17-------------------------------------17-19-20----20-19---|
|-------------------19-17-16-------------------16-17-19---------------------|
|----------------------------19-17-16-16-17-19------------------------------|
|---------------------------------------------------------------------------|
|---------------------------------------------------------------------------|
|
|  W
|---------------------------------------------------------------------------|
|---------------------------------------------------------------------------|
|---------------------------------------------------------------------------|
|--5------------------------------------------------------------------------|
|--3------------------------------------------------------------------------|
|---------------------------------------------------------------------------|


  B5
   |------6-------|  |------6-------|
   S  S  S  S  S  S  S  S  S  S  S  S  S  S  S  S  Q
|-----------------------------------------------------|
|-17--------------------------------------------------|
|----19-17-16----------------------------------16-----|
|-------------19-17-16----------------16-17-19----19--|
|----------------------19-17-15-17-19-----------------|
|-----------------------------------------------------|
|
|  W
|-----------------------------------------------------|
|-----------------------------------------------------|
|-----------------------------------------------------|
|--4--------------------------------------------------|
|--2--------------------------------------------------|
|-----------------------------------------------------|


         D5                         E5
                      ~~                            ~~
   a      +Q.    +E   H       a      +Q.    +S   S  H
|--------------------------|-----------------------------|
|--------------------------|-----------------------------|
|-18b19==(18)r==(18)-18----|-13b14==(13)r==(13)p11-13----|
|--------------------------|-----------------------------|
|--------------------------|-----------------------------|
|--------------------------|-----------------------------|
|
|          W                          W
|--------------------------|-----------------------------|
|--------------------------|-----------------------------|
|--------------------------|-----------------------------|
|----------7---------------|----------9------------------|
|----------5---------------|----------7------------------|
|--------------------------|-----------------------------|


  G5
                    T
  |------6-------|  |------6-------| |------6------|  |-----6------|
  S  S  S  S  S  S  S  S  S  S  S  S S  S  S S  S  S  S  S S  S  S S
|--------------------------------------------------------------------|
|---------10h12h13-17p13p12p10---------------------------------------|
|-9h11h13----------------------12p11-9h11h12-------------------------|
|--------------------------------------------9h10h12-12p10p9---------|
|------------------------------------------------------------12p10p9-|
|--------------------------------------------------------------------|
|
| W
|--------------------------------------------------------------------|
|--------------------------------------------------------------------|
|--------------------------------------------------------------------|
|--------------------------------------------------------------------|
|-5------------------------------------------------------------------|
|-3------------------------------------------------------------------|


                                                   ~
   |------6------|  |-----6------|  |-----6------|
   S  S  S  S  S S  S  S S S  S  S  S  S S  S  S S Q
|-------------------------------------------------------||
|------------------------------------------------------o||
|-------------------------------------------------------||
|-----9h10h12p10p9--------------------------------------||
|------------------12p10p9-9h10h12-12p10p9-------------o||
|-12p--------------------------------------12p10p8-7----||
|
|  W
|-------------------------------------------------------||
|------------------------------------------------------o||
|-------------------------------------------------------||
|-------------------------------------------------------||
|--5---------------------------------------------------o||
|--3----------------------------------------------------||


                          Synth Solo
  2.
                     F#/Bb      B5
  Gtrs I, II
  PM------------|
  S S S S S S S S q  Q           W
|-----------------------||---------------------------------------|
|-----------------------||---------------------------------------|
|-----------------------||---------------------------------------|
|--------------------4--||-------4-------------------------------|
|-4-0-0-0-2-0-0-0-4--1--||-------2-------------------------------|
|-----------------------||---------------------------------------|
|
| Gtr V                 Gtr IV
| S S S S S S S S q  Q     a    +Q   S  S S S S  S S S  S S S  S
|-----------------------||---------------------------------------|
|-2-------0-------2-----||---------------------------------------|
|---2-2-2---2-2-2-------||-----------7-------------7-9-11-9-7----|
|--------------------4--||-9b11-(9)----11-9-7-9-11------------11-|
|--------------------1--||---------------------------------------|
|-----------------------||---------------------------------------|


  C5
   W                          W
|---------------------------|-------------------------------------------|
|---------------------------|-------------------------------------------|
|---------------------------|-------------------------------------------|
|--5------------------------|-5-----------------------------------------|
|--3------------------------|-3-----------------------------------------|
|---------------------------|-------------------------------------------|
|
|  Q  S E S E S  S  S S S S   S S S  S S S  S S  S  S  S  S  S  S  S  S
|-------------------------9-|-----9h12---7------------12-15-19-12-15-17-|
|-------8---8---10------8---|---8------8-----------14-------------------|
|-----9---9---9-------9-----|-9---------------9h12----------------------|
|-10---------------11-------|--------------11---------------------------|
|---------------------------|-------------------------------------------|
|---------------------------|-------------------------------------------|


  B5                                     D5
   W                                      W
|--------------------------------------|-----------------------------------------------|
|--------------------------------------|-----------------------------------------------|
|--------------------------------------|-----------------------------------------------|
|--4-----------------------------------|--7--------------------------------------------|
|--2-----------------------------------|--5--------------------------------------------|
|--------------------------------------|-----------------------------------------------|
|
|  S  S  S  S  S  S  S  S  Q   E  S  S    S  S  S  S  S  S  S  S  S  S  S  S  S  S S S
|-19-18-17-16-15-14-12-14-15--14-15-14-|-17p14-------14p10-------10--------------------|
|--------------------------------------|-------15----------10-------10-------10--------|
|--------------------------------------|----------14----------11-------11h12----11p7---|
|--------------------------------------|---------------------------------------------7-|
|--------------------------------------|-----------------------------------------------|
|--------------------------------------|-----------------------------------------------|


  E5
   W
|----------------------------------------------|
|----------------------------------------------|
|----------------------------------------------|
|--9-------------------------------------------|
|--7-------------------------------------------|
|----------------------------------------------|
|
|                        T
|  S S  S S  S  S  S  S  S  S  S S S  S S S
|-----------------12-15-19p15-12p7---12p7------|
|--------------12------------------8------8----|
|-12p9-11p9-12---------------------------------|
|----------------------------------------------|
|----------------------------------------------|
|----------------------------------------------|


  G5
   W
|-------------------------------------------------|
|-------------------------------------------------|
|-------------------------------------------------|
|-------------------------------------------------|
|--5----------------------------------------------|
|--3----------------------------------------------|
|
|  T
|  S  S  S  S  S  S  S  S  S  S  S  S  S  S  S  S
|-22p19p15----19p15-------14----------------------|
|----------15-------15-------15----------15-------|
|----------------------16-------16-14-------16----|
|-------------------------------------17-------17-|
|-------------------------------------------------|
|-------------------------------------------------|


                                                                                   2/4
                                                         PM-----|      PM----|      PM----|
   W                                                     S  S S S q  E S S S S e    E E E E
|----------------------------------------------|---------------------------------||----------||
|----------------------------------------------|---------------------------------||----------||
|----------------------------------------------|---------------------------------||----------||
|----------------------------------------------|---------------------------------||-------4--||
|--5-------------------------------------------|-------------------------------2-||-----4----||
|--3-------------------------------------------|---------5--2-2-2-4----5-2-2-2---||-2-5------||
|
|                                                      Gtr V
|  S  S  S  S  E  S  S  S  S  S  S  S  S  S  S           S  S S S q  E S S S S E    E E E E
|----------------------------------------------|---------------------------------||-------2--||
|----------------------------------------------|-------------------------------0-||-----2----||
|----------------------------------------------|---------2--------0----2---------||---2------||
|----12----12----12----------12-------12----12-|------------4-4-4--------4-4-4---||-4--------||
|-14----16----16----16-14-16----14-16----16----|---------------------------------||----------||
|----------------------------------------------|-14b16-(14)----------------------||----------||
                                                  a     +H.                Q


 Lead Break
  A5                  G5                   C5                          G/B
 4/4
  Gtr I
                            \1/             \1/
                                                     ~~~                ~~~
  Q.    E  +Q    Q     Q.   E    +Q   Q    +Q.    E  Q.   E   Q.   S S  H
|-------------------|--------------------|------------------|-----------------|
|------13-(13)s=15--|--------------------|------------------|-----------------|
|-9-----------------|-16s==12---(12)s=9--|-(9)----7-[7]-----|------7-7-[7]----|
|-------------------|--------------------|----------------5-|-5---------------|
|-------------------|--------------------|------------------|-----------------|
|-------------------|--------------------|------------------|-----------------|
|
| Gtr II
| W                    W                    W                 H         H
|-------------------|--------------------|------------------|-----------------|
|-------------------|--------------------|------------------|-----------------|
|-------------------|--------------------|------------------|-----------------|
|-2-----------------|--------------------|--5---------------|-5---------5-----|
|-0-----------------|--5-----------------|--3---------------|-3---------2-----|
|-------------------|--3-----------------|------------------|-----------------|


  A5                           G5
  S S S S S S S S S S S S Q    E S S E S S a    +S  +S  S S Q
|----------------------------|---------------------------------|
|----------------------------|---------------------------------|
|-----5h7p5---8p7p5----------|-------5---5-7b8==(7)r(7)p5---7--|
|-5h7-------7-------7-5h7-5--|-7-5h7---7------------------7----|
|----------------------------|---------------------------------|
|----------------------------|---------------------------------|
|
| W                            W
|----------------------------|---------------------------------|
|----------------------------|---------------------------------|
|----------------------------|---------------------------------|
|-2--------------------------|---------------------------------|
|-0--------------------------|-5-------------------------------|
|----------------------------|-3-------------------------------|


  C5                                        G/B
                                                              |----5-----|
  S S S S S S S S S S S S S S S S   S S S S S S S S  S S S  S S  S  S S  S
|-8-7-5---------------------------|-----------------------------------8-10--||
|-------8-7-5---------------------|---------------------------8-10-12-------||
|-------------8-7-5---------------|--------------------7-9-10---------------||
|-------------------7-6-5---------|-----------5-7s9-10----------------------||
|-------------------------7-6-5s3-|---2-3-5s7-------------------------------||
|---------------------------------|-5---------------------------------------||
|
| W                                 H                H
|---------------------------------|-----------------------------------------||
|---------------------------------|-----------------------------------------||
|---------------------------------|-----------------------------------------||
|-5-------------------------------|-5----------------5----------------------||
|-3-------------------------------|-3----------------2----------------------||
|---------------------------------|-----------------------------------------||


 Guitar Solo II
  A5                 G5                  C5
                             ~~~~~~~
   Q.   E +Q    Q     Q   E  E  +H        S  S  S  S  S  S  S  S  S  S  S  S  S  S  S  S
|-12---------------|-----15------------|-17-15-13----------15-13-12----------13-12-10----|
|--------------10s=|=12-----15-(15)----|----------17-15-13----------15-13-12----------13-|
|-------9-(9)------|-------------------|-------------------------------------------------|
|------------------|-------------------|-------------------------------------------------|
|------------------|-------------------|-------------------------------------------------|
|------------------|-------------------|-------------------------------------------------|
|
|  W                  W                   W
|------------------|-------------------|-------------------------------------------------|
|------------------|-------------------|-------------------------------------------------|
|------------------|-------------------|-------------------------------------------------|
|--2---------------|-------------------|--5----------------------------------------------|
|--0---------------|--5----------------|--3----------------------------------------------|
|------------------|--3----------------|-------------------------------------------------|


  C5                    G/B
                         |----5-----|  |-----6------|
   S  S  S  S S  S  S S  S  S S  S  S  S S  S  S S  S
|-----------------------------------------------------|
|-12-10-----------------------------------------------|
|-------12-10-9---------------9-10-12-10-9------------|
|---------------12-10-9-10-12--------------12-10-9----|
|--------------------------------------------------12-|
|-----------------------------------------------------|
|
|  H                     H
|-----------------------------------------------------|
|-----------------------------------------------------|
|-----------------------------------------------------|
|--5---------------------5----------------------------|
|--3---------------------2----------------------------|
|-----------------------------------------------------|


  A5
                T                       T
  |--3--|                 |--3--|
  S  S  S S  S  S  S S  S S  S  S S  S  S  S S  S
|-------------------------------------------------|
|-------------------------------------------------|
|---------------------------------9h10-14p10p9----|
|---------9h10-14p10p9-------------------------12-|
|----------------------12-8h10h12-----------------|
|-8h10h12-----------------------------------------|
|
| W
|-------------------------------------------------|
|-------------------------------------------------|
|-------------------------------------------------|
|-2-----------------------------------------------|
|-0-----------------------------------------------|
|-------------------------------------------------|


  G5
                 T                         T
  |--3--|                   |--3--|
  S  S  S  S  S  S  S  S  S S  S  S  S  S  S  S  S  S
|-----------------------------------10h12-24p12p10h12--|
|---------10h12-15p12p10-------------------------------|
|------------------------12-9h10h12--------------------|
|-9h10h12----------------------------------------------|
|------------------------------------------------------|
|------------------------------------------------------|
|
| W
|------------------------------------------------------|
|------------------------------------------------------|
|------------------------------------------------------|
|------------------------------------------------------|
|-5----------------------------------------------------|
|-3----------------------------------------------------|


  C5
               |------6-------| |------6-------|  |------6------|
   S  S  S  S  S  S  S  S  S  S S  S  S  S  S  S  S  S  S  S S  S
|-13p12p10--------------------------------------------------------|
|----------13-10h12h13p12p10------------10h12h13p12p10------------|
|----------------------------12-9h10h12----------------12p10s9h10-|
|-----------------------------------------------------------------|
|-----------------------------------------------------------------|
|-----------------------------------------------------------------|
|
|  W
|-----------------------------------------------------------------|
|-----------------------------------------------------------------|
|-----------------------------------------------------------------|
|--5--------------------------------------------------------------|
|--3--------------------------------------------------------------|
|-----------------------------------------------------------------|


                                        D.S. al Coda
                                   G5
   |-----6------|  |------6------| |----5-----|
   S  S S  S  S S  S  S S  S  S  S S  S  S S  S  Q
|-----------------------------------------------------||
|-----------------------------------------------------||
|-12p10p9---------------9h10h12p10p9------------------||
|---------12p10p9h10h12--------------12p10p9----------||
|--------------------------------------------12-10\---||
|-----------------------------------------------------||
|
|  H                               H
|-----------------------------------------------------||
|-----------------------------------------------------||
|-----------------------------------------------------||
|-----------------------------------------------------||
|----------------------------------5------------------||
|----------------------------------3------------------||


                Outro
D.S.S. al Dbl.&&oda
  G5             N.C.
                 PM----|      PM------|
  H    +H        S S S S q  E S S S S e   E E E E E E E E   E  E E  E  q   Q
|-------------||------------------------|-----------------|-------------------*|
|-------------||------------------------|-----------------|-------------------*|
|-------------||------------------------|-----------------|-------------------*|
|-------------||------------------------|-------3-4-----3-|-4-------3--4\-----*|
|-5----(5)----||----------------------2-|-----4-------4---|------4------------*|
|-3----(3)----||-5-2-2-2-4----5-2-2-2---|-2-5-------5-----|----5--------------*|
|
|                Gtr V                    Gtrs II, V
| W              S S S S q  E S S S S E   E E E E E E E E   E  E E  E  q   Q
|-------------||------------------------|-----------------|------9-13-14\-----*|
|-------------||----------------------0-|---------------6-|-7-10--------------*|
|-------------||-2-------1----2---------|-------------6---|-------------------*|
|-------------||---4-4-4--------4-4-4---|-------3-4-7-----|-------------------*|
|-------------||------------------------|-----4-----------|-------------------*|
|-------------||------------------------|-2-5-------------|-------------------*|



Duration Legend
---------------
W - whole; H - half; Q - quarter; E - 8th; S - 16th; T - 32nd; X - 64th; a - acciaccatura
+ - note tied to previous; . - note dotted; .. - note double dotted
Uncapitalized letters represent notes that are staccato (1/2 duration)
Irregular groupings are notated above the duration line
Duration letters will always appear directly above the note/fret number it represents the
duration for.  Duration letters with no fret number below them represent rests.  Multi-
bar rests are notated in the form Wxn, where n is the number of bars to rest for.  Low
melody durations appear below the staff

Tablature Legend
----------------
 h   - hammer-on
 p   - pull-off
 b   - bend
 pb  - pre-bend
 r   - bend release (if no number after the r, then release immediately)
 /\  - slide into or out of (from/to "nowhere")
 s   - legato slide
 S   - shift slide
 - natural harmonic
[n]  - artificial harmonic
n(n) - tapped harmonic
 ~   - vibrato
 tr  - trill
 T   - tap
 TP  - trem. picking
 PM  - palm muting
\n/  - tremolo bar dip; n = amount to dip
 \n  - tremolo bar down
 n/  - tremolo bar up
/n\  - tremolo bar inverted dip
 =   - hold bend; also acts as connecting device for hammers/pulls
 <> - volume swell (louder/softer)
 x   - on rhythm slash represents muted slash
 o   - on rhythm slash represents single note slash

Misc Legend
-----------
 |  - bar
||  - double bar
||o - repeat start
o|| - repeat end
*|  - double bar (ending)
 :  - bar (freetime)
 $  - Segno
 &  - Coda
Tempo markers -  = BPM(8/16=s8/s16), where s8 = swing 8ths, s16 = swing 16ths

Tap to rate this tab
# A B C D E F G H I J K L M N O P Q R S T U V W X Y Z