Song name
# A B C D E F G H I J K L M N O P Q R S T U V W X Y Z

Sonata Arctica - Wolf And Raven tab

#----------------------------------PLEASE NOTE---------------------------------#
#This file is the author's own work and represents their interpretation of the #
#song. You may only use this file for private study, scholarship, or research. #
#------------------------------------------------------------------------------#

WOLF AND RAVEN
As recorded by Sonata Arctica 
(From the 2001 Album SILENCE)


Transcribed by an unregistered user


 Music by Sonata Arctica 

 

Gtr I (Eb Ab Db Gb Bb Eb) - 'Jani Liimatainen'
Gtr II (Eb Ab Db Gb Bb Eb) - 'Jani Liimatainen 2'


  Q=171
 4/4
  Gtr I
  S S S S S S S S S S S S S S S S    S  S S S S S S S S S S S S S S S
|---------------------------------|------------------------------------|
|-5-3-1-0-3-1-0-----------3-1-0---|--5--3-1-0-3-1-0-----------3-1-0----|
|---------------2-1-2-4-5-------2-|-----------------2-1-2-4-5-------2--|
|---------------------------------|------------------------------------|
|---------------------------------|------------------------------------|
|---------------------------------|------------------------------------|
|
| Gtr II
| W                                 +W
|---------------------------------|------------------------------------|
|---------------------------------|------------------------------------|
|-2-------------------------------|-(2)--------------------------------|
|-2-------------------------------|-(2)--------------------------------|
|-0-------------------------------|-(0)--------------------------------|
|---------------------------------|------------------------------------|


  S S S S S S S S S S S S S S S S    S  S S S S S S S S S S S S S S S
|---------------------------------|-----------------------------------|
|-5-3-1-0-3-1-0-----------3-1-0---|--5--3-1-0-3-1-0-----------3-1-0---|
|---------------2-1-2-4-5-------2-|-----------------2-1-2-4-5-------2-|
|---------------------------------|-----------------------------------|
|---------------------------------|-----------------------------------|
|---------------------------------|-----------------------------------|
|
| W                                 +W
|---------------------------------|-----------------------------------|
|---------------------------------|-----------------------------------|
|---------------------------------|-----------------------------------|
|-3-------------------------------|-(3)-------------------------------|
|-3-------------------------------|-(3)-------------------------------|
|-1-------------------------------|-(1)-------------------------------|


  S S S S S S S S S S S S S S S S    S  S S S S S S S S S S S S S S S
|---------------------------------|-----------------------------------|
|-5-3-1-0-3-1-0-----------3-1-0---|--5--3-1-0-3-1-0-----------3-1-0---|
|---------------2-1-2-4-5-------2-|-----------------2-1-2-4-5-------2-|
|---------------------------------|-----------------------------------|
|---------------------------------|-----------------------------------|
|---------------------------------|-----------------------------------|
|
| W                                 +W
|---------------------------------|-----------------------------------|
|-3-------------------------------|-(3)-------------------------------|
|-2-------------------------------|-(2)-------------------------------|
|-0-------------------------------|-(0)-------------------------------|
|---------------------------------|-----------------------------------|
|---------------------------------|-----------------------------------|


  S S S S S S S S S S S S S S S S    S  S S S S S S S S S S S S S S S
|---------------------------------|-----------------------------4-7-8-|
|-5-3-1-0-3-1-0-----------3-1-0---|--5--3-1-0-3-1-0-------3-5-6-------|
|---------------2-1-2-4-5-------2-|-----------------2-4-5-------------|
|---------------------------------|-----------------------------------|
|---------------------------------|-----------------------------------|
|---------------------------------|-----------------------------------|
|
| W                                 +W
|---------------------------------|-----------------------------------|
|---------------------------------|-----------------------------------|
|-2-------------------------------|-(2)-------------------------------|
|-2-------------------------------|-(2)-------------------------------|
|-0-------------------------------|-(0)-------------------------------|
|---------------------------------|-----------------------------------|


   S  S S S  S S S S S S S S  S S S S    S   S S S  S S S S S S S S  S S S S
|-12-10-8-7-10-8-7-5-4-5-7-8-10-8-7-5-|-12--10-8-7-10-8-7-5-4-5-7-8-10-8-7-5-|
|-------------------------------------|--------------------------------------|
|-------------------------------------|--------------------------------------|
|-------------------------------------|--------------------------------------|
|-------------------------------------|--------------------------------------|
|-------------------------------------|--------------------------------------|
|
|  W                                    +W
|-------------------------------------|--------------------------------------|
|-------------------------------------|--------------------------------------|
|--2----------------------------------|-(2)----------------------------------|
|--2----------------------------------|-(2)----------------------------------|
|--0----------------------------------|-(0)----------------------------------|
|-------------------------------------|--------------------------------------|


   S  S S S  S S S S S S S S  S S S S    S   S S S  S S S S S S S S  S S S S
|-12-10-8-7-10-8-7-5-4-5-7-8-10-8-7-5-|-12--10-8-7-10-8-7-5-4-5-7-8-10-8-7-5-|
|-------------------------------------|--------------------------------------|
|-------------------------------------|--------------------------------------|
|-------------------------------------|--------------------------------------|
|-------------------------------------|--------------------------------------|
|-------------------------------------|--------------------------------------|
|
|  W                                    +W
|-------------------------------------|--------------------------------------|
|--6----------------------------------|-(6)----------------------------------|
|--5----------------------------------|-(5)----------------------------------|
|--3----------------------------------|-(3)----------------------------------|
|-------------------------------------|--------------------------------------|
|-------------------------------------|--------------------------------------|


   S  S S S  S S S S S S S S  S S S S    S   S S S  S S S S S S S S  S S S S
|-12-10-8-7-10-8-7-5-4-5-7-8-10-8-7-5-|-12--10-8-7-10-8-7-5-4-5-7-8-10-8-7-5-|
|-------------------------------------|--------------------------------------|
|-------------------------------------|--------------------------------------|
|-------------------------------------|--------------------------------------|
|-------------------------------------|--------------------------------------|
|-------------------------------------|--------------------------------------|
|
|  W                                    +W
|-------------------------------------|--------------------------------------|
|--3----------------------------------|-(3)----------------------------------|
|--2----------------------------------|-(2)----------------------------------|
|--0----------------------------------|-(0)----------------------------------|
|-------------------------------------|--------------------------------------|
|-------------------------------------|--------------------------------------|


   S  S S S  S S S S S S S S S S S S    S  S S S S S  S  S  H
|-12-10-8-7-10-8-7-5-8-7-5-4-7-5-4---|---------4-5-8-12-16-17----|
|----------------------------------6-|-------5-------------------|
|------------------------------------|-----5---------------------|
|------------------------------------|--7------------------------|
|------------------------------------|---------------------------|
|------------------------------------|---------------------------|
|
|  W                                   +W
|------------------------------------|---------------------------|
|------------------------------------|---------------------------|
|--2---------------------------------|-(2)-----------------------|
|--2---------------------------------|-(2)-----------------------|
|--0---------------------------------|-(0)-----------------------|
|------------------------------------|---------------------------|


  Gtrs I, II
  E S S S S S S S S S S S S S S   S S S S S S S S S S S S S S S S
|-------------------------------|---------------------------------|
|-------------------------------|---------------------------------|
|-2-----------------------------|---------------------------------|
|-2-----------------------------|---------------------------------|
|-0-0-0-0-0-0-0-0-0-0-0-0-0-0-0-|-0-0-0-0-0-0-0-0-0-0-0-0-0-0-0-0-|
|-------------------------------|---------------------------------|


  S S S S S S S S S S S S S S S S   Q  Q  Q  Q
|---------------------------------|-------------|
|---------------------------------|-------------|
|---------------------------------|-4--5--2-----|
|---------------------------------|-4--5--2--5--|
|-0-0-0-0-0-0-0-0-0-0-0-0-0-0-0-0-|-2--3--0--5--|
|---------------------------------|----------3--|


  Gtr I
  E   S S S S S S S S S S S S S S   S S S S S S S S S S S S S S S S
|---------------------------------|---------------------------------|
|---------------------------------|---------------------------------|
|-2-------------------------------|---------------------------------|
|-2-------------------------------|---------------------------------|
|-0---0-0-0-0-0-0-0-0-0-0-0-0-0-0-|-0-0-0-0-0-0-0-0-0-0-0-0-0-0-0-0-|
|---------------------------------|---------------------------------|
|
| Gtr II
| S S S S S S S S S S S S S S S S   S S S S S S S S S S S S S S S S
|---------------------------------|---------------------------------|
|---------------------------------|---------------------------------|
|-2-------------------------------|---------------------------------|
|-2-------------------------------|---------------------------------|
|-0-0-0-0-0-0-0-0-0-0-0-0-0-0-0-0-|-0-0-0-0-0-0-0-0-0-0-0-0-0-0-0-0-|
|---------------------------------|---------------------------------|


  Gtrs I, II
  S S S S S S S S S S S S S S S S   Q  Q  Q  Q    W
|---------------------------------|-------------|------|
|---------------------------------|-------------|------|
|---------------------------------|-4--5--2-----|------|
|---------------------------------|-4--5--2--5--|-2----|
|-0-0-0-0-0-0-0-0-0-0-0-0-0-0-0-0-|-2--3--0--5--|-2----|
|---------------------------------|----------3--|-0----|


  Gtr I
  H    E E +Q     H.      E E   Q.   E H      Q.   E Q  Q
|---------------|-------------|-------------|--------------|
|-1----1-1-(1)--|-------------|-------------|-----------3--|
|---------------|-------------|-------------|------0-2-----|
|---------------|-3-------5-7-|-7----5-5----|-2------------|
|---------------|-------------|-------------|-2------------|
|---------------|-------------|-------------|-0------------|
|
| Gtr II
| W               W             W             W
|---------------|-------------|-------------|--------------|
|---------------|-------------|-------------|--------------|
|-2-------------|-------------|-------------|--------------|
|-2-------------|-3-----------|-5-----------|-2------------|
|-0-------------|-3-----------|-5-----------|-2------------|
|---------------|-1-----------|-3-----------|-0------------|


  E. S +E  E +S  E. +Q     E. S +S  E. E. S +S  E.   E. S +E  E  H
|------------------------|-------------------------|------------10----|
|-3--1-(1)-0-(0)-1--(1)--|-1--3-(3)-5-----3-(3)-5--|-5--3-(3)-1-------|
|------------------------|-------------5-----------|------------------|
|------------------------|-------------------------|------------------|
|------------------------|-------------------------|------------------|
|------------------------|-------------------------|------------------|
|
| W                        W                         W
|------------------------|-------------------------|------------------|
|------------------------|-------------------------|------------------|
|-2----------------------|-------------------------|------------------|
|-2----------------------|-3-----------------------|-5----------------|
|-0----------------------|-3-----------------------|-5----------------|
|------------------------|-1-----------------------|-3----------------|


  E   S S S S S S S S S S S S S S   S S S S S S S S S S S S S S S S
|---------------------------------|---------------------------------|
|---------------------------------|---------------------------------|
|-2-------------------------------|---------------------------------|
|-2-------------------------------|---------------------------------|
|-0---0-0-0-0-0-0-0-0-0-0-0-0-0-0-|-0-0-0-0-0-0-0-0-0-0-0-0-0-0-0-0-|
|---------------------------------|---------------------------------|
|
| S S S S S S S S S S S S S S S S   S S S S S S S S S S S S S S S S
|---------------------------------|---------------------------------|
|---------------------------------|---------------------------------|
|-2-------------------------------|---------------------------------|
|-2-------------------------------|---------------------------------|
|-0-0-0-0-0-0-0-0-0-0-0-0-0-0-0-0-|-0-0-0-0-0-0-0-0-0-0-0-0-0-0-0-0-|
|---------------------------------|---------------------------------|


  Gtrs I, II
  S S S S S S S S S S S S S S S S   Q  Q  Q  Q
|---------------------------------|-------------|
|---------------------------------|-------------|
|---------------------------------|-4--5--2-----|
|---------------------------------|-4--5--2--5--|
|-0-0-0-0-0-0-0-0-0-0-0-0-0-0-0-0-|-2--3--0--5--|
|---------------------------------|----------3--|


  Gtr I
  E   S S S S S S S S S S S S S S   S S S S S S S S S S S S S S S S
|---------------------------------|---------------------------------|
|---------------------------------|---------------------------------|
|-2-------------------------------|---------------------------------|
|-2-------------------------------|---------------------------------|
|-0---0-0-0-0-0-0-0-0-0-0-0-0-0-0-|-0-0-0-0-0-0-0-0-0-0-0-0-0-0-0-0-|
|---------------------------------|---------------------------------|
|
| Gtr II
| S S S S S S S S S S S S S S S S   S S S S S S S S S S S S S S S S
|---------------------------------|---------------------------------|
|---------------------------------|---------------------------------|
|-2-------------------------------|---------------------------------|
|-2-------------------------------|---------------------------------|
|-0-0-0-0-0-0-0-0-0-0-0-0-0-0-0-0-|-0-0-0-0-0-0-0-0-0-0-0-0-0-0-0-0-|
|---------------------------------|---------------------------------|


  Gtrs I, II
  S S S S S S S S S S S S S S S S   Q  Q  Q  Q    W
|---------------------------------|-------------|------|
|---------------------------------|-------------|------|
|---------------------------------|-4--5--2-----|------|
|---------------------------------|-4--5--2--5--|-2----|
|-0-0-0-0-0-0-0-0-0-0-0-0-0-0-0-0-|-2--3--0--5--|-2----|
|---------------------------------|----------3--|-0----|


  Gtr I
  H    E E +Q     H.      E E   Q.   E H      Q.   E Q  Q
|---------------|-------------|-------------|--------------|
|-1----1-1-(1)--|-------------|-------------|-----------3--|
|---------------|-------------|-------------|------0-2-----|
|---------------|-3-------5-7-|-7----5-5----|-2------------|
|---------------|-------------|-------------|-2------------|
|---------------|-------------|-------------|-0------------|
|
| Gtr II
| W               W             W             W
|---------------|-------------|-------------|--------------|
|---------------|-------------|-------------|--------------|
|-2-------------|-------------|-------------|--------------|
|-2-------------|-3-----------|-5-----------|-2------------|
|-0-------------|-3-----------|-5-----------|-2------------|
|---------------|-1-----------|-3-----------|-0------------|


  E. S +E  E +S  E. +Q     E. S +S  E. E. S +S  E.
|------------------------|-------------------------|
|-3--1-(1)-0-(0)-1--(1)--|-1--3-(3)-5-----3-(3)-5--|
|------------------------|-------------5-----------|
|------------------------|-------------------------|
|------------------------|-------------------------|
|------------------------|-------------------------|
|
| W                        W
|------------------------|-------------------------|
|------------------------|-------------------------|
|-2----------------------|-------------------------|
|-2----------------------|-3-----------------------|
|-0----------------------|-3-----------------------|
|------------------------|-1-----------------------|


  E. S +E  E H      H    H
|-----------------|-----------|
|-5--3-(3)-1-3----|-----------|
|-----------------|-2---------|
|-----------------|-2----5----|
|-----------------|-0----5----|
|-----------------|------3----|
|
| W                 H    H
|-----------------|-----------|
|-----------------|-----------|
|-----------------|-2---------|
|-5---------------|-2----5----|
|-5---------------|-0----5----|
|-3---------------|------3----|


  Gtrs I, II
  W          H    H      W          H    H
|----------|-----------|----------|-----------|
|----------|-3---------|----------|-----------|
|----------|-2----5----|-4--------|-2---------|
|-3--------|-0----5----|-4--------|-2----5----|
|-3--------|------3----|-2--------|-0----5----|
|-1--------|-----------|----------|------3----|


  W          H    H      W          W
|----------|-----------|----------|------|
|----------|-3---------|----------|------|
|----------|-2----5----|-4--------|------|
|-3--------|-0----5----|-4--------|-3----|
|-3--------|------3----|-2--------|-3----|
|-1--------|-----------|----------|-1----|


  +W           E S S S S S S S S S S S S S S
|------------|-------------------------------|
|------------|-------------------------------|
|------------|-2-----------------------------|
|-(3)--------|-2-----------------------------|
|-(3)--------|-0-0-0-0-0-0-0-0-0-0-0-0-0-0-0-|
|-(1)--------|-------------------------------|


  S S S S S S S S S S S S S S S S   S S S S S S S S S S S S S S S S
|---------------------------------|---------------------------------|
|---------------------------------|---------------------------------|
|---------------------------------|---------------------------------|
|---------------------------------|---------------------------------|
|-0-0-0-0-0-0-0-0-0-0-0-0-0-0-0-0-|-0-0-0-0-0-0-0-0-0-0-0-0-0-0-0-0-|
|---------------------------------|---------------------------------|


  Q  Q  Q  Q    S S S S S S S S S S S S S S S S
|-------------|---------------------------------|
|-------------|---------------------------------|
|-4--5--2-----|-2-------------------------------|
|-4--5--2--5--|-2-------------------------------|
|-2--3--0--5--|-0-0-0-0-0-0-0-0-0-0-0-0-0-0-0-0-|
|----------3--|---------------------------------|


  S S S S S S S S S S S S S S S S   S S S S S S S S S S S S S S S S
|---------------------------------|---------------------------------|
|---------------------------------|---------------------------------|
|---------------------------------|---------------------------------|
|---------------------------------|---------------------------------|
|-0-0-0-0-0-0-0-0-0-0-0-0-0-0-0-0-|-0-0-0-0-0-0-0-0-0-0-0-0-0-0-0-0-|
|---------------------------------|---------------------------------|


  Gtr I
  Q  Q  Q  Q    W          H    E E +Q     H.      E E
|-------------|----------|---------------|-------------|
|-------------|----------|-1----1-1-(1)--|-------------|
|-4--5--2-----|----------|---------------|-------------|
|-4--5--2--5--|-2--------|---------------|-3-------5-7-|
|-2--3--0--5--|-2--------|---------------|-------------|
|----------3--|-0--------|---------------|-------------|
|
| Gtr II
| Q  Q  Q  Q    W          W               W
|-------------|----------|---------------|-------------|
|-------------|----------|---------------|-------------|
|-4--5--2-----|----------|-2-------------|-------------|
|-4--5--2--5--|-2--------|-2-------------|-3-----------|
|-2--3--0--5--|-2--------|-0-------------|-3-----------|
|----------3--|-0--------|---------------|-1-----------|


  Q.   E H      Q.   E Q  Q
|-------------|--------------|
|-------------|-----------3--|
|-------------|------0-2-----|
|-7----5-5----|-2------------|
|-------------|-2------------|
|-------------|-0------------|
|
| W             W
|-------------|--------------|
|-------------|--------------|
|-------------|--------------|
|-5-----------|-2------------|
|-5-----------|-2------------|
|-3-----------|-0------------|


  E. S +E  E +S  E. +Q     E. S +S  E. E. S +S  E.
|------------------------|-------------------------|
|-3--1-(1)-0-(0)-1--(1)--|-1--3-(3)-5-----3-(3)-5--|
|------------------------|-------------5-----------|
|------------------------|-------------------------|
|------------------------|-------------------------|
|------------------------|-------------------------|
|
| W                        W
|------------------------|-------------------------|
|------------------------|-------------------------|
|-2----------------------|-------------------------|
|-2----------------------|-3-----------------------|
|-0----------------------|-3-----------------------|
|------------------------|-1-----------------------|


  E. S +E  E  H      H    H      W          H    H
|------------10----|-----------|----------|-----------|
|-5--3-(3)-1-------|-----------|----------|-3---------|
|------------------|-2---------|----------|-2----5----|
|------------------|-2----5----|-3--------|-0----5----|
|------------------|-0----5----|-3--------|------3----|
|------------------|------3----|-1--------|-----------|
|
| W                  H    H      W          H    H
|------------------|-----------|----------|-----------|
|------------------|-----------|----------|-3---------|
|------------------|-2---------|----------|-2----5----|
|-5----------------|-2----5----|-3--------|-0----5----|
|-5----------------|-0----5----|-3--------|------3----|
|-3----------------|------3----|-1--------|-----------|


  Gtrs I, II
  W          H    H      W          H    H
|----------|-----------|----------|-----------|
|----------|-----------|----------|-3---------|
|-4--------|-2---------|----------|-2----5----|
|-4--------|-2----5----|-3--------|-0----5----|
|-2--------|-0----5----|-3--------|------3----|
|----------|------3----|-1--------|-----------|


  W          S S E E S S E E Q    Q  Q  H      W
|----------|--------------------|------------|------|
|----------|--------------------|------------|------|
|-4--------|--------------------|------------|------|
|-5--------|---------0-0-0------|------------|------|
|-2--------|-------2------------|-7----------|------|
|----------|-0-0-0-0-------4----|-5----------|------|


  Gtr I
   S  S  S S  S  S  S  S  Q.    S  S    S  S  S  S  Q   S  S  S  S  Q
|-13-12-10-8-10-12-13-15-17----15-17-|-18-17-15-13-12--17-15-13-12-10--|
|------------------------------------|---------------------------------|
|------------------------------------|---------------------------------|
|------------------------------------|---------------------------------|
|------------------------------------|---------------------------------|
|------------------------------------|---------------------------------|


   S  S  S  S S  S  S  S  S  S  S  S S  S  S S   S S S S S S S S  Q.   S  S
|-15-13-12-10-9-10-12-13-15-13-12-10-9---------|----------------------------|
|--------------------------------------11-10-8-|-6-5-3-1-3-5-6-8-10----8-10-|
|----------------------------------------------|----------------------------|
|----------------------------------------------|----------------------------|
|----------------------------------------------|----------------------------|
|----------------------------------------------|----------------------------|


   S  S S S Q  S S S S Q    S S S S S S S S S S S S S S S S
|--------------5-3-1-0----|-3-1-0---------------------------|
|-11-10-8-6-5----------3--|-------3-2-3-5-6-8-6-5-3-2-------|
|-------------------------|---------------------------3-2-0-|
|-------------------------|---------------------------------|
|-------------------------|---------------------------------|
|-------------------------|---------------------------------|


                                   3/4
  S S S S S S S S S S S S S S S S   Q  E E Q    Q  E E Q    Q  E E Q
|---------------------------------|-----------|-----------|------------|
|---------------------------------|-----------|-----------|------------|
|---------6-7-6-------------------|-----------|-----------|------------|
|-3-5-7-8-------8-7-5-3-2-0-------|-----------|-----------|------------|
|---------------------------4-5-7-|-7----7----|-7----7----|-7----7-----|
|---------------------------------|-5----5----|-5----5----|-5----5-----|
|
| Gtr II
| W                                 Q  E E Q    Q  E E Q    Q  E E Q
|---------------------------------|-----------|-----------|------------|
|---------------------------------|-----------|-----------|------------|
|---------------------------------|-----------|-----------|------------|
|---------------------------------|-----------|-----------|------------|
|---------------------------------|-7----7----|-7----7----|-7----7-----|
|---------------------------------|-5----5----|-5----5----|-5----5-----|


            4/4                                 3/4
  Q  Q  Q    E E E E E E E E   E E E E E E E E   Q  E E Q    Q  E E Q
|----------|-----------------|-----------------|-----------|------------|
|----------|-3---3---------2-|-3---3-----------|-----------|------------|
|----------|---------2---2---|---------2---2---|-----------|------------|
|----------|-----------------|-----------------|-2----2----|-2----2-----|
|-7--7--7--|-------0---------|-------0-------0-|-0----0----|-0----0-----|
|-5--5--5--|-----------------|-----------------|-----------|------------|
|
| Q  Q  Q    E E E E E E E E   E E E E E E E E   Q  E E Q    Q  E E Q
|----------|-----------------|-----------------|-----------|------------|
|----------|-3---3---------2-|-3---3-----------|-----------|------------|
|----------|---------2---2---|---------2---2---|-----------|------------|
|----------|-----------------|-----------------|-2----2----|-2----2-----|
|-7--7--7--|-------0---------|-------0-------0-|-0----0----|-0----0-----|
|-5--5--5--|-----------------|-----------------|-----------|------------|


                        4/4                                 3/4
  Q  E E Q    Q  Q  Q    E E E E E E E E   E E E E E E E E   Q  E E Q
|-----------|----------|-----------------|-1---------------|------------|
|-----------|----------|-3---3---------3-|-------2-3-----2-|------------|
|-----------|----------|---------2-------|-----2-------2---|------------|
|-2----2----|-2--2--2--|-----------------|-----------------|-2----2-----|
|-0----0----|-0--0--0--|-------0-----0---|-----------------|-0----0-----|
|-----------|----------|-----------------|-----------------|------------|
|
| Q  E E Q    Q  Q  Q    E E E E E E E E   E E E E E E E E   Q  E E Q
|-----------|----------|-----------------|-1---------------|------------|
|-----------|----------|-3---3---------3-|-------2-3-----2-|------------|
|-----------|----------|---------2-------|-----2-------2---|------------|
|-2----2----|-2--2--2--|-----------------|-----------------|-2----2-----|
|-0----0----|-0--0--0--|-------0-----0---|-----------------|-0----0-----|
|-----------|----------|-----------------|-----------------|------------|


                                    4/4
  Q  E E Q    Q  E E Q    Q  Q  Q    E E E E E E E E   E E E E E E E E
|-----------|-----------|----------|-----------------|-----------------|
|-----------|-----------|----------|-3---3---------2-|-3---3-----------|
|-----------|-----------|----------|---------2---2---|---------2---2---|
|-2----2----|-2----2----|-2--2--2--|-----------------|-----------------|
|-0----0----|-0----0----|-0--0--0--|-------0---------|-------0-------0-|
|-----------|-----------|----------|-----------------|-----------------|
|
| Q  E E Q    Q  E E Q    Q  Q  Q    E E E E E E E E   E E E E E E E E
|-----------|-----------|----------|-----------------|-----------------|
|-----------|-----------|----------|-3---3---------2-|-3---3-----------|
|-----------|-----------|----------|---------2---2---|---------2---2---|
|-2----2----|-2----2----|-2--2--2--|-----------------|-----------------|
|-0----0----|-0----0----|-0--0--0--|-------0---------|-------0-------0-|
|-----------|-----------|----------|-----------------|-----------------|


 3/4                                            4/4
  Q  E E Q    Q  E E Q    Q  E E Q    Q  Q  Q    E E E E E E E E
|-----------|-----------|-----------|----------|------------------|
|-----------|-----------|-----------|----------|-3---3---------3--|
|-----------|-----------|-----------|----------|---------2--------|
|-2----2----|-2----2----|-2----2----|-2--2--2--|------------------|
|-0----0----|-0----0----|-0----0----|-0--0--0--|-------0-----0----|
|-----------|-----------|-----------|----------|------------------|
|
| Q  E E Q    Q  E E Q    Q  E E Q    Q  Q  Q    E E E E E E E E
|-----------|-----------|-----------|----------|------------------|
|-----------|-----------|-----------|----------|-3---3---------3--|
|-----------|-----------|-----------|----------|---------2--------|
|-2----2----|-2----2----|-2----2----|-2--2--2--|------------------|
|-0----0----|-0----0----|-0----0----|-0--0--0--|-------0-----0----|
|-----------|-----------|-----------|----------|------------------|


                                   9/8                4/4
  Gtrs I, II
  E E E E E E E E   Q  Q  E E E E   Q  E E E E E E E   W
|-1---------------|---------------|------------------|------|
|-------2-3-----2-|---------------|------------------|------|
|-----2-------2---|-3--2--0-------|------------------|------|
|-----------------|---------3-2-0-|--------------0---|-7----|
|-----------------|---------------|-4--------------4-|-5----|
|-----------------|---------------|----6-5-3-1-0-----|------|


  Gtr I
  +W            S  S S S S S S S S S S S S S S S
|------------|--5--3-1-0-3-1-0-------------------|
|------------|-----------------3-2-3-5-6-8-6-5-3-|
|------------|-----------------------------------|
|-(7)--------|-----------------------------------|
|-(5)--------|-----------------------------------|
|------------|-----------------------------------|
|
| Gtr II
| +W           +W
|------------|-----------------------------------|
|------------|-----------------------------------|
|------------|-----------------------------------|
|-(7)--------|-(7)-------------------------------|
|-(5)--------|-(5)-------------------------------|
|------------|-----------------------------------|


   S  S S S S S S S S S S S S S S S    S  S S S S S S S S S S S S S S S
|--5--3-1-0-3-1-0-------------------|--5--3-1-0-3-1-0-------------------|
|-----------------3-2-3-5-6-8-6-5-3-|-----------------3-2-3-5-6-8-6-5-3-|
|-----------------------------------|-----------------------------------|
|-----------------------------------|-----------------------------------|
|-----------------------------------|-----------------------------------|
|-----------------------------------|-----------------------------------|
|
| +W                                  +W
|-----------------------------------|-----------------------------------|
|-----------------------------------|-----------------------------------|
|-----------------------------------|-----------------------------------|
|-(7)-------------------------------|-(7)-------------------------------|
|-(5)-------------------------------|-(5)-------------------------------|
|-----------------------------------|-----------------------------------|


   S  S S S S S S S S S S S S S S S    S  S S S S S S S S S S S S S S S
|--5--3-1-0-3-1-0-------------------|--5--3-1-0-3-1-0-------------------|
|-----------------3-2-3-5-6-8-6-5-3-|-----------------3-2-3-5-6-8-6-5-3-|
|-----------------------------------|-----------------------------------|
|-----------------------------------|-----------------------------------|
|-----------------------------------|-----------------------------------|
|-----------------------------------|-----------------------------------|
|
| +W                                  +W
|-----------------------------------|-----------------------------------|
|-----------------------------------|-----------------------------------|
|-----------------------------------|-----------------------------------|
|-(7)-------------------------------|-(7)-------------------------------|
|-(5)-------------------------------|-(5)-------------------------------|
|-----------------------------------|-----------------------------------|


   S  S S S S S S S S S S S S S S S    S  S S S S S S S S S S S S S S S
|--5--3-1-0-3-1-0-------------------|--5--3-1-0-3-1-0-------------------|
|-----------------3-2-3-5-6-8-6-5-3-|-----------------3-2-3-5-6-8-6-5-3-|
|-----------------------------------|-----------------------------------|
|-----------------------------------|-----------------------------------|
|-----------------------------------|-----------------------------------|
|-----------------------------------|-----------------------------------|
|
| +W                                  +W
|-----------------------------------|-----------------------------------|
|-----------------------------------|-----------------------------------|
|-----------------------------------|-----------------------------------|
|-(7)-------------------------------|-(7)-------------------------------|
|-(5)-------------------------------|-(5)-------------------------------|
|-----------------------------------|-----------------------------------|


   S  S S S S S S S S S S  S  S  S  S  S
|--5--3-1-0-3-1-0---------------10-13-15-|
|-----------------3-5-6-8-10-11----------|
|----------------------------------------|
|----------------------------------------|
|----------------------------------------|
|----------------------------------------|
|
| +W
|----------------------------------------|
|----------------------------------------|
|----------------------------------------|
|-(7)------------------------------------|
|-(5)------------------------------------|
|----------------------------------------|


   S  S  S  S  S  S  S  S S  S  S  S  S  S  S  S
|-17-15-13-12-15-13-12-10-9-10-12-13-15-13-12-10-|
|------------------------------------------------|
|------------------------------------------------|
|------------------------------------------------|
|------------------------------------------------|
|------------------------------------------------|
|
|  W
|------------------------------------------------|
|------------------------------------------------|
|--7---------------------------------------------|
|--7---------------------------------------------|
|--5---------------------------------------------|
|------------------------------------------------|


   S   S  S  S  S  S  S  S S  S  S  S  S  S  S  S
|-17--15-13-12-15-13-12-10-9-10-12-13-15-13-12-10-|
|-------------------------------------------------|
|-------------------------------------------------|
|-------------------------------------------------|
|-------------------------------------------------|
|-------------------------------------------------|
|
| +W
|-------------------------------------------------|
|-------------------------------------------------|
|-(7)---------------------------------------------|
|-(7)---------------------------------------------|
|-(5)---------------------------------------------|
|-------------------------------------------------|


   S  S  S  S  S  S  S  S S  S  S  S  S  S  S  S
|-17-15-13-12-15-13-12-10-9-10-12-13-15-13-12-10-|
|------------------------------------------------|
|------------------------------------------------|
|------------------------------------------------|
|------------------------------------------------|
|------------------------------------------------|
|
|  W
|------------------------------------------------|
|------------------------------------------------|
|------------------------------------------------|
|--8---------------------------------------------|
|--8---------------------------------------------|
|--6---------------------------------------------|


   S   S  S  S  S  S  S  S S  S  S  S  S  S  S  S
|-17--15-13-12-15-13-12-10-9-10-12-13-15-13-12-10-|
|-------------------------------------------------|
|-------------------------------------------------|
|-------------------------------------------------|
|-------------------------------------------------|
|-------------------------------------------------|
|
| +W
|-------------------------------------------------|
|-------------------------------------------------|
|-------------------------------------------------|
|-(8)---------------------------------------------|
|-(8)---------------------------------------------|
|-(6)---------------------------------------------|


   S  S  S  S  S  S  S  S S  S  S  S  S  S  S  S
|-17-15-13-12-15-13-12-10-9-10-12-13-15-13-12-10-|
|------------------------------------------------|
|------------------------------------------------|
|------------------------------------------------|
|------------------------------------------------|
|------------------------------------------------|
|
|  W
|------------------------------------------------|
|------------------------------------------------|
|------------------------------------------------|
|--5---------------------------------------------|
|--5---------------------------------------------|
|--3---------------------------------------------|


   S   S  S  S  S  S  S  S S  S  S  S  S  S  S  S
|-17--15-13-12-15-13-12-10-9-10-12-13-15-13-12-10-|
|-------------------------------------------------|
|-------------------------------------------------|
|-------------------------------------------------|
|-------------------------------------------------|
|-------------------------------------------------|
|
| +W
|-------------------------------------------------|
|-------------------------------------------------|
|-------------------------------------------------|
|-(5)---------------------------------------------|
|-(5)---------------------------------------------|
|-(3)---------------------------------------------|


   S  S  S  S  S  S  S  S  S  S  S S  S  S  S  S
|-17-15-13-12-15-13-12-10-13-12-10-9----13-------|
|------------------------------------11----11-10-|
|------------------------------------------------|
|------------------------------------------------|
|------------------------------------------------|
|------------------------------------------------|
|
|  W
|------------------------------------------------|
|--3---------------------------------------------|
|--2---------------------------------------------|
|--0---------------------------------------------|
|------------------------------------------------|
|------------------------------------------------|


   S  S S S S S S S S S S S S  S  S  S    W           W
|-----6-5-3-1-5-3-1-3-4-5-6-8-10-11-12-|-13--------|--------|
|--8-----------------------------------|-----------|--------|
|--------------------------------------|-----------|--------|
|--------------------------------------|-----------|-12-----|
|--------------------------------------|-----------|-12-----|
|--------------------------------------|-----------|-10-----|
|
| +W                                      W          +W
|--------------------------------------|-----------|--------|
|-(3)----------------------------------|--3--------|-(3)----|
|-(2)----------------------------------|--2--------|-(2)----|
|-(0)----------------------------------|--0--------|-(0)----|
|--------------------------------------|-----------|--------|
|--------------------------------------|-----------|--------|


   +W            H     H       W           +W
|-------------|-------------|-----------|---------|
|-------------|-------------|-----------|---------|
|-------------|-------------|--7--------|--(7)----|
|-(12)--------|-10-----9----|--7--------|--(7)----|
|-(12)--------|-10----10----|-----------|---------|
|-(10)--------|--8-----7----|-10--------|-(10)----|
|
|  +W            H     H       W           +W
|-------------|-------------|-----------|---------|
|--(3)--------|-------------|--3--------|--(3)----|
|--(2)--------|--5-----4----|--2--------|--(2)----|
|--(0)--------|--5-----5----|--0--------|--(0)----|
|-------------|--3-----2----|-----------|---------|
|-------------|-------------|-----------|---------|


   +W            H     H      S S S S S S S S S S S S S S S S
|-------------|-------------|----------------------------------|
|-------------|-------------|----------------------------------|
|--(7)--------|-------------|-------------------------2-2-2-2--|
|--(7)--------|-10-----9----|-----------------2-2-2-2----------|
|-------------|-10----10----|---------4-4-4-4------------------|
|-(10)--------|--8-----7----|-5-5-5-5--------------------------|
|
|  +W            H     H      S S S S S S S S S S S S S S S S
|-------------|-------------|----------------------------------|
|--(3)--------|-------------|----------------------------------|
|--(2)--------|--5-----4----|-------------------------2-2-2-2--|
|--(0)--------|--5-----5----|-----------------2-2-2-2----------|
|-------------|--3-----2----|-0-0-0-0-4-4-4-4------------------|
|-------------|-------------|----------------------------------|


  Q.   E H      S S S S S S S S S S S S S S S S   Q.   E H
|-------------|---------------------------------|-------------|
|-5----3-3----|---------------------------------|-5----3-3----|
|-------------|---------------------------------|-------------|
|-------------|-------------------------2-2-2-2-|-------------|
|-------------|---------0-0-0-0-3-3-3-3---------|-------------|
|-------------|-0-0-0-0-------------------------|-------------|
|
| W             S S S S S S S S S S S S S S S S   W
|-------------|---------------------------------|-------------|
|-------------|---------------------------------|-------------|
|-2-----------|---------------------------------|-------------|
|-0-----------|-------------------------2-2-2-2-|-2-----------|
|-------------|-----------------2-2-2-2---------|-0-----------|
|-------------|-0-0-0-0-4-4-4-4-----------------|-------------|


  Gtrs I, II
  S S S S S S S S S S S S S S S S   Q  Q  Q  Q    H.      E E
|---------------------------------|-------------|--------------|
|---------------------------------|-5-----------|-5-------3-1--|
|-------------------------2-2-2-2-|----5--------|--------------|
|-----------------3-3-3-3---------|-------5-----|--------------|
|---------3-3-3-3-----------------|----------3--|--------------|
|-1-1-1-1-------------------------|-------------|--------------|


  W          H    H      W          H    H
|----------|-----------|----------|-----------|
|-3--------|-----------|----------|-3---------|
|----------|-2---------|----------|-2----5----|
|----------|-2----5----|-3--------|-0----5----|
|----------|-0----5----|-3--------|------3----|
|----------|------3----|-1--------|-----------|


  W          H    H      W          H    H
|----------|-----------|----------|-----------|
|----------|-----------|----------|-3---------|
|-4--------|-2---------|----------|-2----5----|
|-4--------|-2----5----|-3--------|-0----5----|
|-2--------|-0----5----|-3--------|------3----|
|----------|------3----|-1--------|-----------|


  Gtr I
  W          S S S S S S S S S S S S S S S S
|----------|---------------------------------|
|----------|-5-3-1-0-3-1-0-----------3-1-0---|
|-4--------|---------------2-1-2-4-5-------2-|
|-4--------|---------------------------------|
|-2--------|---------------------------------|
|----------|---------------------------------|
|
| Gtr II
| W          W
|----------|---------------------------------|
|----------|---------------------------------|
|-4--------|-2-------------------------------|
|-4--------|-2-------------------------------|
|-2--------|-0-------------------------------|
|----------|---------------------------------|


   S  S S S S S S S S S S S S S S S   S S S S S S S S S S S S S S S S
|-----------------------------------|---------------------------------|
|--5--3-1-0-3-1-0-----------3-1-0---|-5-3-1-0-3-1-0-----------3-1-0---|
|-----------------2-1-2-4-5-------2-|---------------2-1-2-4-5-------2-|
|-----------------------------------|---------------------------------|
|-----------------------------------|---------------------------------|
|-----------------------------------|---------------------------------|
|
| +W                                  W
|-----------------------------------|---------------------------------|
|-----------------------------------|-6-------------------------------|
|-(2)-------------------------------|-5-------------------------------|
|-(2)-------------------------------|-3-------------------------------|
|-(0)-------------------------------|---------------------------------|
|-----------------------------------|---------------------------------|


   S  S S S S S S S S S S S S S S S   S S S S S S S S S S S S S S S S
|-----------------------------------|---------------------------------|
|--5--3-1-0-3-1-0-----------3-1-0---|-5-3-1-0-3-1-0-----------3-1-0---|
|-----------------2-1-2-4-5-------2-|---------------2-1-2-4-5-------2-|
|-----------------------------------|---------------------------------|
|-----------------------------------|---------------------------------|
|-----------------------------------|---------------------------------|
|
| +W                                  W
|-----------------------------------|---------------------------------|
|-(6)-------------------------------|-3-------------------------------|
|-(5)-------------------------------|-2-------------------------------|
|-(3)-------------------------------|-0-------------------------------|
|-----------------------------------|---------------------------------|
|-----------------------------------|---------------------------------|


   S  S S S S S S S S S S S S S S S   S S S S S S S S S S S S S S S S
|-----------------------------------|---------------------------------|
|--5--3-1-0-3-1-0-----------3-1-0---|-5-3-1-0-3-1-0-----------3-1-0---|
|-----------------2-1-2-4-5-------2-|---------------2-1-2-4-5-------2-|
|-----------------------------------|---------------------------------|
|-----------------------------------|---------------------------------|
|-----------------------------------|---------------------------------|
|
| +W                                  W
|-----------------------------------|---------------------------------|
|-(3)-------------------------------|---------------------------------|
|-(2)-------------------------------|-2-------------------------------|
|-(0)-------------------------------|-2-------------------------------|
|-----------------------------------|-0-------------------------------|
|-----------------------------------|---------------------------------|


   S  S S S S S S S S S S S S S S S    S  S S S  S S S S S S S S  S S S S
|-----------------------------4-7-8-|-12-10-8-7-10-8-7-5-4-5-7-8-10-8-7-5-|
|--5--3-1-0-3-1-0-------3-5-6-------|-------------------------------------|
|-----------------2-4-5-------------|-------------------------------------|
|-----------------------------------|-------------------------------------|
|-----------------------------------|-------------------------------------|
|-----------------------------------|-------------------------------------|
|
| +W                                   W
|-----------------------------------|-------------------------------------|
|-----------------------------------|-------------------------------------|
|-(2)-------------------------------|--2----------------------------------|
|-(2)-------------------------------|--2----------------------------------|
|-(0)-------------------------------|--0----------------------------------|
|-----------------------------------|-------------------------------------|


   S   S S S  S S S S S S S S  S S S S    S  S S S  S S S S S S S S  S S S S
|-12--10-8-7-10-8-7-5-4-5-7-8-10-8-7-5-|-12-10-8-7-10-8-7-5-4-5-7-8-10-8-7-5-|
|--------------------------------------|-------------------------------------|
|--------------------------------------|-------------------------------------|
|--------------------------------------|-------------------------------------|
|--------------------------------------|-------------------------------------|
|--------------------------------------|-------------------------------------|
|
| +W                                      W
|--------------------------------------|-------------------------------------|
|--------------------------------------|--6----------------------------------|
|-(2)----------------------------------|--5----------------------------------|
|-(2)----------------------------------|--3----------------------------------|
|-(0)----------------------------------|-------------------------------------|
|--------------------------------------|-------------------------------------|


   S   S S S  S S S S S S S S  S S S S    S  S S S  S S S S S S S S  S S S S
|-12--10-8-7-10-8-7-5-4-5-7-8-10-8-7-5-|-12-10-8-7-10-8-7-5-4-5-7-8-10-8-7-5-|
|--------------------------------------|-------------------------------------|
|--------------------------------------|-------------------------------------|
|--------------------------------------|-------------------------------------|
|--------------------------------------|-------------------------------------|
|--------------------------------------|-------------------------------------|
|
| +W                                      W
|--------------------------------------|-------------------------------------|
|-(6)----------------------------------|--3----------------------------------|
|-(5)----------------------------------|--2----------------------------------|
|-(3)----------------------------------|--0----------------------------------|
|--------------------------------------|-------------------------------------|
|--------------------------------------|-------------------------------------|


   S   S S S  S S S S S S S S  S S S S
|-12--10-8-7-10-8-7-5-4-5-7-8-10-8-7-5-|
|--------------------------------------|
|--------------------------------------|
|--------------------------------------|
|--------------------------------------|
|--------------------------------------|
|
| +W
|--------------------------------------|
|-(3)----------------------------------|
|-(2)----------------------------------|
|-(0)----------------------------------|
|--------------------------------------|
|--------------------------------------|


   S  S  S  S  S  S  S  S  S  S  S  S  S  S  S  S
|-17-15-------------------------------------------|
|-------------15-------12-13----------12----------|
|-------16-17----13-14----------13-14----------13-|
|----------------------------15----------14-15----|
|-------------------------------------------------|
|-------------------------------------------------|
|
|  W
|-------------------------------------------------|
|-------------------------------------------------|
|--2----------------------------------------------|
|--2----------------------------------------------|
|--0----------------------------------------------|
|-------------------------------------------------|


   S   S  S  S  S  S S  S  E S S S S S S   Q   Q  H
|----------------------------------------|-------------*|
|----------------------------------------|-------------*|
|-14--13---------------------------------|-2-----------*|
|--------15-14-12-10-9-------------------|-2-----------*|
|----------------------11-12-0-0-0-0-0-0-|-0-----------*|
|----------------------------------------|-------------*|
|
| +W                                       E E Q  H
|----------------------------------------|-------------*|
|----------------------------------------|-------------*|
|-(2)------------------------------------|-2-----------*|
|-(2)------------------------------------|-2-----------*|
|-(0)------------------------------------|-0-----------*|
|----------------------------------------|-------------*|




--------------------------------------------------------------------------------


Duration Legend
---------------
W - whole; H - half; Q - quarter; E - 8th; S - 16th; T - 32nd; X - 64th; a - acciaccatura
+ - note tied to previous; . - note dotted; .. - note double dotted
Uncapitalized letters represent notes that are staccato (1/2 duration)
Irregular groupings are notated above the duration line
Duration letters will always appear directly above the note/fret number it represents the
duration for.  Duration letters with no fret number below them represent rests.  Multi-
bar rests are notated in the form Wxn, where n is the number of bars to rest for.  Low
melody durations appear below the staff

Tablature Legend
----------------
 h   - hammer-on
 p   - pull-off
 b   - bend
 pb  - pre-bend
 r   - bend release (if no number after the r, then release immediately)
 /\  - slide into or out of (from/to "nowhere")
 s   - legato slide
 S   - shift slide
 - natural harmonic
[n]  - artificial harmonic
n(n) - tapped harmonic
 ~   - vibrato
 tr  - trill
 T   - tap
 TP  - trem. picking
 PM  - palm muting
\n/  - tremolo bar dip; n = amount to dip
 \n  - tremolo bar down
 n/  - tremolo bar up
/n\  - tremolo bar inverted dip
 =   - hold bend; also acts as connecting device for hammers/pulls
 <> - volume swell (louder/softer)
 x   - on rhythm slash represents muted slash
 o   - on rhythm slash represents single note slash

Misc Legend
-----------
 |  - bar
||  - double bar
||o - repeat start
o|| - repeat end
*|  - double bar (ending)
 :  - bar (freetime)
 $  - Segno
 &  - Coda
Tempo markers -  = BPM(8/16=s8/s16), where s8 = swing 8ths, s16 = swing 16ths

Tap to rate this tab
# A B C D E F G H I J K L M N O P Q R S T U V W X Y Z