Song name
# A B C D E F G H I J K L M N O P Q R S T U V W X Y Z

Sonata Arctica - Under Your Tree tab

I DO NOT TAKE CREDIT FOR THIS TAB. I DID NOT MAKE IT. IT'S TAKEN DIRECTLY FROM SONATA 
SITE AND INCLUDES ORIGINAL INFORMATION. UPLOADING IT FOR THE COMMUNITY.

************************************************************************
*               SONATA ARCTICA - UNDER YOUR TREE                       *
*                 FROM THE ALBUM UNIA                                  *
************************************************************************
Music By: Sonata Arctica
Transcribed By: Martin Steinkopf (<3 jani <3)
Day tabbed: 25th may 2007
Email: martin_emppu@hotmail.com
Tuning: Eb - Ab - Db - Gb - Bb - Eb (1/2 step down, 6, string)

---------------------------------------------------------------------------

  Acoustic guitar
| Intro
|-------------------------------------------------------------------------|
|-------------------------------------------------------------------------|
|-------------------------------------------------------------------------|
|-A#9---C---Dm---C---A#9---C---G-----A#9---C---Dm--F--C-----A#9---C---Dm--|
|-------------------------------------------------------------------------|
|-------------------------------------------------------------------------|

| Verse 1
|----------5-----------5------------5----------------------------3----------|
|--------6-----------6------------6----------5--------3--------3---3--------|
|------7-----------7------------7----------5--------3--------3-------3------|
|----7-----------7------------7----------5--------3--------5----------5---5-|
|--5-----------5------------5----------3--------1---------------------------|
|--------------------------------------------------------3--------------3---|

                                                   | Verse 2
|------3---------------3--------------1------------|-----------------------|
|----3---3-----------3---3----------1----------5---|-----------------------|
|--3-------3-------3-------3------2----------5-----|-----------------------|
|------------5---5-----------5--3----------5-------|--Dm------C--A#--Gm----|
|----------------------------------------3---------|-----------------------|
|--------------3-----------------------------------|-----------------------|

             | Bridge 1                                        | Chorus 1
|------------|-------------------------------------------------|-----------|
|------------|-------------------------------------------------|-----------|
|------------|-------------------------------------------------|-----------|
|----F--C----|-C#/5---A#9---Fm---Am---Dm---A#9---Fm---Am---Dm--|--A#9---C--|
|------------|-------------------------------------------------|-----------|
|------------|-------------------------------------------------|-----------|
                                        *Distortion guitar (the chords goes
|--------------------------------------------------------------------------|
|------------------------------------------------------------*---*---*---*-|
|------------------------------------------------------------5---7---9---7-|
|--Dm---C---A#9---C---G-----A#9---C---Dm--F--C-----A#9---C---5---7---9---7-|
|------------------------------------------------------------3---5---7---5-|
|--------------------------------------------------------------------------|

like the chorus, but one tone up.)             | Bridge 2
|----------------------------------------------|---------------------------|
|--*---*---*------*---*---*---*------*---*-----|---------------------------|
|--5---7----------5---7---9---7------5---7-----|--2------------5-----------|
|--5---7---7------5---7---9---7------5---7-----|--2-----2------5------5----|
|--3---5---7------3---5---7---5------3---5-----|--0-----2------3------5----|
|----------5-----------------------------------|--------0-------------3----|

                                  | Bridge 3              03:09
|---------------------------------|-----------------------1-1-------1-1-----|
|---------------------------------|--No guitars in the----1---1-----1---1---|
|--2-------------5------5------\--|--beginning but at-----3-----3---3-----3-|
|--2------2------5------5------\--|--03:09, the acoustic--3---------3-------|
|--0------2------3------3------\--|--guitar enters.-------1---------1-------|
|---------0-----------------------|-----------------------------------------|

                                                        | Distortion guitar
|--4-4-------1-1-------1-1-------1-1------4-4-------6~--|------------------|
|--4---4-----1---1-----1---1-----1---2----4---4-----6~--|------------------|
|--6-----6---3-----3---3-----3---2-----3--6-----6---8~--|--3---------------|
|--6---------3---------3---------3--------6---------8~--|--3------6------3-|
|--4---------1---------1------------------4---------6~--|--1------6------3-|
|-------------------------------------------------------|---------4------1-|
             | Bridge 4 *Jani takes his 7 string axe in use for a while
|------------|------------------------------------------------------------|
|------------|------------------------------------------------------------|
|------------|------------------------------------------------------------|
|----4---6---|----------8------4--------------------8------4~-----4~------|
|----4---6---|---6------8------4------4------6------8------4~-----4~------|
|----2---4---|---6------6------2------4------6------6------2~-----2~------|
|------------|---4--------------------2------4----------------------------|

| Chorus 2 (with chords back)
|--------------------------------------------------------------------------|
|--------------------------------------------------------------------------|
|--------------------------------------------------------------------------|
|---4---6---8---6---4---6----------4---6---8---6---4---6---4---6---8--6--6-|
|---4---6---8---6---4---6---6------4---6---8---6---4---6---4---6---8--4--6-|
|---2---4---6---4---2---4---6------2---4---6---4---2---4---2---4---6-----4-|
|---------------------------4----------------------------------------------|
                                           *only acoustic guitar
|-------------------------------------------1~----------------------------|
|-------------------------------------------2~----------------------------|
|-------------------------------------------3~----------------------------|
|--4---6----------4---6---8--6--6---4---6---3~----------------------------|
|--4---6---6------4---6---8--4--6---4---6---1~----------------------------|
|--2---4---6------2---4---6-----4---2---4---------------------------------|
|----------4--------------------------------------------------------------|

End...

Transcribed by: Martin Steinkopf
Tap to rate this tab
# A B C D E F G H I J K L M N O P Q R S T U V W X Y Z