Guitaretab - guitar tabs
Song name
# A B C D E F G H I J K L M N O P Q R S T U V W X Y Z

Sonata Arctica - Worlds Forgotten The Words Forbidden tab

************************************************************************
*      SONATA ARCTICA - THE WORLDS FORGOTTEN, THE WORDS FORBIDDEN      *
*                    FROM THE ALBUM UNIA                               *
************************************************************************
Music By: Sonata Arctica
Transcribed By: Martin Steinkopf (<3 jani <3)
Day tabbed: 15th June 2007
Email: martin_emppu@hotmail.com
Tuning: Bb - Eb - Ab - Db - Gb - Bb - Eb (1/2 step down, 7 string)

---------------------------------------------------------------------------

Long intro, with some acoustic instruments, but I havenít tabbed them.

| Intro (01:54)
|--------------------------------------------------------------------------|
|--------------------------------------------------------------------------|
|--------------------------------------------------------------------------|
|--------------------------------------------------------------------------|
|--7-7-7-7-7-7-7-7-7-7-7-7-7-7-7-7--7-7-7-7-7-7-7-7-7-7-7-7-7-7-7-7--3-3-3-|
|--5-5-5-5-5-5-5-5-5-5-5-5-5-5-5-5--5-5-5-5-5-5-5-5-5-5-5-5-5-5-5-5--1-1-1-|
|--------------------------------------------------------------------------|
P.M. . . . . . . . . . . . . . . .  . . . . . . . . . . . . . . . .  . . .

|--------------------------------------------------------------------------|
|--------------------------------------------------------------------------|
|--------------------------------------------------------------------------|
|--------------------------------------------------------------------------|
|--3-3-3-3-3-3-3-3-3-3-3-3-3--3-3-3-3-3-3-3-3-3-3-3-3-3-3-3-3--5-5-5-5-5-5-|
|--1-1-1-1-1-1-1-1-1-1-1-1-1--1-1-1-1-1-1-1-1-1-1-1-1-1-1-1-1--3-3-3-3-3-3-|
|--------------------------------------------------------------------------|
P.M. . . . . . . . . . . . .  . . . . . . . . . . . . . . . .  . . . . . .
[ Tab from: http://www.guitaretab.com/s/sonata-arctica/94158.html ]
|--------------------------------------------------------------------------|
|--------------------------------------------------------------------------|
|--------------------------------------------------------------------------|
|--------------------------------------------------------------------------|
|--5-5-5-5-5-5-5-5-5-5--5-5-5-5-5-5-5-5-5-5-5-5-5-5-5-5--3-3-3-3-3-3-3-3-3-|
|--3-3-3-3-3-3-3-3-3-3--3-3-3-3-3-3-3-3-3-3-3-3-3-3-3-3--1-1-1-1-1-1-1-1-1-|
|--------------------------------------------------------------------------|
P.M. . . . . . . . . .  . . . . . . . . . . . . . . . .  . . . . . . . . .

|--------------------------------------------------------------------------|
|--------------------------------------------------------------------------|
|--------------------------------------------------------------------------|
|--------------------------------------------------------------------------|
|--3-3-3-3-3-3-3-----------------------------------------------------------|
|--1-1-1-1-1-1-1--5-5-5-5-5-5-5-5-5-5-5-5-5-5-5-5--5--5--5-5--5-5--5--5-5--|
|-----------------3-3-3-3-3-3-3-3-3-3-3-3-3-3-3-3--3--3--3-3--3-3--3--3-3--|
P.M. . . . . . .  . . . . . . . . . . . . . . . .  .  .  . .  . .  .  . .

|--------------------------------------------------------------------------|
|--------------------------------------------------------------------------|
|--------------------------------------------------------------------------|
|--------------------------------------------------------------------------|
|--------------------------8--8--8-8--8-8--8--8-8--8--8--8-8--8-8--8--8-8--|
|--5--5--5-5--5-5--5--5-5--6--6--6-6--6-6--6--6-6--6--6--6-6--6-6--6--6-6--|
|--3--3--3-3--3-3--3--3-3--------------------------------------------------|
P.M.  .  . .  . .  .  . .  .  .  . .  . .  .  . .  .  .  . .  . .  .  . .

|--------------------------------------------------------------------------|
|--------------------------------------------------------------------------|
|--------------------------------------------------------------------------|
|--------------------------------------------------------------------------|
|--10-10-1010-1010-10-1010-10-10-1010-1010-10-1010--8--8--8-8--8-8--8--8-8-|
|--8--8--8-8--8-8--8--8-8--8--8--8-8--8-8--8--8-8---6--6--6-6--6-6--6--6-6-|
|--------------------------------------------------------------------------|
P.M.  .  . .  . .  .  . .  .  .  . .  . .  .  . .   .  .  . .  . .  .  . .

|-----------------------------------------------|
|-----------------------------------------------|
|-----------------------------------------------|
|-----------------------------------------------|
|--7--7--7-7--7-7--7--7-7\----------------------|
|--5--5--5-5--5-5--5--5-5\----------------------|
|-----------------------------------------------|
P.M.  .  . .  . .  .  . .


End...

Transcribed by: Martin Steinkopf
Related for Worlds Forgotten The Words Forbidden tab