Guitaretab - guitar tabs
Song name
# A B C D E F G H I J K L M N O P Q R S T U V W X Y Z

Sonata Arctica - Paid In Full tab

I DO NOT TAKE CREDIT FOR THIS TAB. I DID NOT MAKE IT. IT'S TAKEN DIRECTLY FROM SONATA 
SITE AND INCLUDES ORIGINAL INFORMATION. UPLOADING IT FOR THE COMMUNITY.

************************************************************************
*               SONATA ARCTICA  PAID IN FULL                          *
*                    FROM THE ALBUM UNIA                               *
************************************************************************
Music By: Sonata Arctica
Transcribed By: Martin Steinkopf (<3 jani <3)
Day tabbed: 25th may 2007
Email: martin_emppu@hotmail.com
Tuning: Bb - Eb - Ab - Db - Gb - Bb - Eb (1/2 step down, 7 string)

---------------------------------------------------------------------------

| Intro (00:02)
|--------------------------------------------------------------------------|
|--------------------------------------------------------------------------|
|--------------------------------------------------------------------------|
|--------------------------------------------------------------------------|
|-----3-/-5-5\-5-5-5-5-3-\-5-3-\-5~-\------------3-\-5-5\---------8--------|
|-----3-/-5-5\-5-5-5-5-3-\-5-3-\-5~-\------------3-\-5-5\---------8-A.H.---|
|-----1-/-3-3\-3-3-3-3-1-\-3-1-\-3~-\------------1-\-3-3\---------6--5-----|
PM:   .                .           .             .

|--------------------------------------------------------------------------|
|--------------------------------------------------------------------------|
|--------------------------------------------------------------------------|
|--------------------------------------------------------------3------3----|
|------5------5------5------5------3------3------3------3------3------3----|
|------5------5------5------5------3------3------3------3--1-1-1--1-1-1----|
|--3-3-3--3-3-3--3-3-3--3-3-3--1-1-1--1-1-1--1-1-1--1-1-1------------------|
PM:. .    . .    . .    . .    . .    . .    . .    . .    . .    . .

                                              | Verse 1          | Verse 2
|---------------------------------------------|------------------|---------|
|---------------------------------------------|------------------|---------|
|---------------------------------------------|------------------|---------|
|------7------7------8------8------10-----10--|--Without guitar--|---------|
|------7------7------8------8------10-----10--|------------------|------5--|
|--5-5-5--5-5-5--6-6-6--6-6-6--8-8-8--8-8-8---|------------------|------5--|
|---------------------------------------------|------------------|--3-3-3--|
PM:. .    . .    . .    . .    . .    . .                           . .


|--------------------------------------------------------------------------|
|--------------------------------------------------------------------------|
|--------------------------------------------------------------------------|
|-------------------------------------------------------3------3------3----|
|------5------5------5------3------3------3------3--1-1-1--1-1-1--1-1-1----|
|------5------5------5------3------3------3------3-------------------------|
|--3-3-3--3-3-3--3-3-3--1-1-1--1-1-1--1-1-1--1-1-1-------------------------|
PM:. .    . .    . .    . .    . .    . .    . .    . .    . .    . .

|--------------------------------------------------------------------------|
|--------------------------------------------------------------------------|
|-------------------------------------3~-----------------------------------|
|------3------3------3------2------2--3~--------3~----2~-------------------|
|--1-1-1------3------3------3------3--1~--------3~----3~----5~-------------|
|---------1-1-1--1-1-1--0-0-0--0-0-0------------1~----0~----5~-------------|
|-----------------------------------------------------------3~-------------|
PM:. .    . .    . .    . .    . .

                        | Chorus 1
|-----------------------|--------------------------------------------------|
|-----------------------|--------------------------------------------------|
|-----------------------|--------------------------------------------------|
|--3~-------------------|--------------------------------------------------|
|--3~-------3~----2~----|--------------------------------------------------|
|--1~-------3~----3~----|------5------5------5------5------3------3------3-|
|-----------1~----0~----|------5------5------5------5------3------3------3-|
|-----------------------|--3-3-3--3-3-3--3-3-3--3-3-3--1-1-1--1-1-1--1-1-1-|
PM:                        . .    . .    . .    . .    . .    . .    . .

                                                                  | Verse 3
|-----------------------------------------------------------------|--------|
|-----------------------------------------------------------------|--------|
|-----------------------------------------------------------------|--------|
|-------------3------3------7------7------8------8-----10-----10--|--------|
|------3------3------3------7------7------8------8-----10-----10--|------5-|
|------3--1-1-1--1-1-1--5-5-5--5-5-5--6-6-6--6-6-6--8-8-8--8-8-8--|------5-|
|--1-1-1----------------------------------------------------------|--3-3-3-|
PM:. .    . .    . .    . .    . .    . .    . .    . .    . .       . .
[ Tab from: http://www.guitaretab.com/s/sonata-arctica/94162.html ]
|--------------------------------------------------------------------------|
|--------------------------------------------------------------------------|
|--------------------------------------------------------------------------|
|-------------------------------------------------------3------3------3----|
|------5------5------5------3------3------3------3--1-1-1--1-1-1--1-1-1----|
|------5------5------5------3------3------3------3-------------------------|
|--3-3-3--3-3-3--3-3-3--1-1-1--1-1-1--1-1-1--1-1-1-------------------------|
PM:. .    . .    . .    . .    . .    . .    . .    . .    . .    . .
                                     |                  x2 |
|------------------------------------|---------------------|---------------|
|------------------------------------|---------------------|---------------|
|------------------------------------|-3~------------------|---------------|
|------3------3------3------2------2-|-3~--------3~----2~--|------3------3-|
|--1-1-1------3------3------3------3-|-1~--------3~----3~--|--1-1-1--1-1-1-|
|---------1-1-1--1-1-1--0-0-0--0-0-0-|-----------1~----0~--|---------------|
|------------------------------------|---------------------|---------------|
PM:. .    . .    . .    . .    . .                            . .    . .
                                            | Chorus 2
|-------------------------------------------|------------------------------|
|-------------------------------------------|------------------------------|
|-------------------------------------------|------------------------------|
|------3------3----3~----------2~-----------|--------------------------3---|
|--1-1-1--1-1-1----3~----------3~-----------|--5~-----3~---------------3---|
|------------------1~----------0~-----------|--5~-----3~-------1-1-1-1-1---|
|-------------------------------------------|--3~-----1~-------------------|
   . .    . .                                                  . . . .

                                               | Bridge 1
|----------------------------------------------|---------------------------|
|----------------------------------------------|---------------------------|
|----------------------------------------------|---------------------------|
|-----------7-------------8------------10\-----|------------------------3--|
|-----------7-------------8------------10\-----|--3--3-3-3--3-3--3-3----1--|
|---5-5-5-5-5-----6-6-6-6-6-----8-8-8-8-8\-----|--3--3-3-3--3-3--3-3-------|
|----------------------------------------------|--1--1-1-1--1-1--1-1-------|
PM: . . . .       . . . .       . . . .              . .    . .  . .

                                           x2  |
|----------------------------------------------|--------------------------|
|----------------------------------------------|--------------------------|
|----------------------------------------------|--------------------------|
|----3-3-3--3-3--3-3---------------------------|--------------------------|
|----1-1-1--1-1--1-1----6--6-6-6--6-6--6-6-----|----6--6-6-6--8-8--8-8----|
|-----------------------4--4-4-4--3-3--3-3-----|----4--4-4-4--6-6--6-6----|
|----------------------------------------------|--------------------------|
PM:  . .    . .  . .       . .    . .  . .          . .    . .  . .

|
|--------------------------------------------------------------------------|
|--------------------------------------------------------------------------|
|--------------------------------------------------------------------------|
|------------------------4--4-4-4--6-6-6-6-6---7--7-7-7--7--7--7-7-7--7----|
|--4--4-4-4--4-4-4-4-4---4--4-4-4--6-6-6-6-6---7--7-7-7--7--7--7-7-7--7----|
|--4--4-4-4--4-4-4-4-4---2--2-2-2--4-4-4-4-4---5--5-5-5-5--5--5-5-5-5----|
|--2--2-2-2--2-2-2-2-2-----------------------------------------------------|
PM:   . . .  . . . . .      . . .  . . . . .      . . .        . . .

               x2 | Keyboard solo                            x2  |
|-----------------|----------------------------------------------|--------|
|-----------------|----------------------------------------------|--------|
|-----------------|----------------------------------------------|--------|
|--9--9-9-9--9-9--|----------------------------------------------|--------|
|--9--9-9-9--9-9--|--5~--------3~--------3~----7~----8~----10~---|--5~----|
|--7--7-7-7--7-7--|--5~--------3~--------1~----5~----6~----8~----|--5~----|
|-----------------|--3~--------1~--------------------------------|--3~----|
PM:   . . .  . .

| Verse 4                           | Chorus 3        x2 | Bridge 2
|-----------------------------------|--------------------|-----------------|
|-----------------------------------|--------------------|-----------------|
|--Starts without-------------------|--Same as previous--|-----------------|
|---Guitar. The---3~------3~---2~---|--but it is Palm----|------2------2---|
|--guitar begins--1~------3~---3~---|--muted all the way-|------2------2---|
|---at the end.-----------1~---0~---|--------------------|--0-0-0--0-0-0---|
|-----------------------------------|--------------------|-----------------|
PM:                                                         . .    . .

|-------------------------------------------------------------------------|
|-------------------------------------------------------------------------|
|-------------------------------------------------------------------------|
|------2------2----------------------------------5------5------9------9---|
|------2------2------5------5------5------5------5------5------9------9---|
|--0-0-0--0-0-0------5------5------5------5--3-3-3--3-3-3--7-7-7--7-7-7---|
|----------------3-3-3--3-3-3--3-3-3--3-3-3-------------------------------|
PM:. .    . .    . .    . .    . .    . .    . .    . .    . .    . .

| Chorus 4
|--------------------------------------------------------------------------|
|--------------------------------------------------------------------------|
|--------------------------------------------------------------------------|
|------2------2------2------2----------------------------------5------5----|
|------2------2------2------2------5------5------5------5------5------5----|
|--0-0-0--0-0-0--0-0-0--0-0-0------5------5------5------5--3-3-3--3-3-3----|
|------------------------------3-3-3--3-3-3--3-3-3--3-3-3------------------|
PM:. .    . .    . .    . .    . .    . .    . .    . .    . .    . .

                                                 x2 |                     |
|---------------------------------------------------|---------------------|
|---------------------------------------------------|---------------------|
|---------------------------------------------------|---------------------|
|------9------9------10-----10--------12--------12--|---------------------|
|------9------9------10-----10--------12--------12--|--7\\\---------------|
|--7-7-7--7-7-7--8-8-8--8-8-8---10-10-10--10-10-10--|--7\\\---------------|
|---------------------------------------------------|--5\\\---------------|
PM:. .    . .    . .    . .     . .        . .


End...

Transcribed by: Martin Steinkopf
Related for Paid In Full tab