Song name
# A B C D E F G H I J K L M N O P Q R S T U V W X Y Z

Sonata Arctica - Janis Demonstration tab

                     Jani's Demonstration


                    Sonata Arctica/Jani Liimatainen
Track 1
just play it! =P

      tazh1988@gmail.com
                                    E  S S S S S S S S S S S  S E
D#||---------------------|-------|----------------------------------|
A#||---------------------|-------|----------------------------------|
F#||---------------------|-------|----------------------------------|
C#||---------------------|-------|----------------------------------|
G#||---------------------|-------|------------------------------7~--|
D#||---------------------|-------|--0--0-0-3-0-0-0-L-0-5-0-7p-6-----|


  E  S S S S S S S S S S S S S S    E  S S S S S S S S S S S  S E
---------------------------------|----------------------------------|
---------------------------------|----------------------------------|
---------------------------------|----------------------------------|
---------------------------------|----------------------------------|
---------------------------------|------------------------------7~--|
--0--0-0-3-0-0-0-L-0-6-0-5-0-3-L-|--0--0-0-3-0-0-0-L-0-5-0-7p-6-----|


  |---3--| |---3--| |---3--| |---3---|  |--3--|  |--3--|  |--3--|  |--3--|
  S  S   S S  S   S S  S   S S   S   S  S  S  S  S  S  S  S  S  S  S  S  S
---------------------------------------------------------------------------|
---------------------------------------------------------------------------|
-----------------------------7h-10h-12p-9p-7-------------------------------|
--------------------7h-9h-12-----------------12p-9p-7----------------------|
-----------5h-7h-10-----------------------------------10p-7p-5-------------|
--5h-7h-10-----------------------------------------------------10p-7p-5p-0-|


  E  S S S S S S S S S S S  S E      E  S S S S S S S S S S S S S S
----------------------------------|---------------------------------|
----------------------------------|---------------------------------|
----------------------------------|---------------------------------|
----------------------------------|---------------------------------|
------------------------------7~--|---------------------------------|
--0--0-0-3-0-0-0-L-0-5-0-7p-6-----|--0--0-0-3-0-0-0-L-0-6-0-5-0-3-L-|


  E  S S S S S S S S S S S  S E
----------------------------------|
----------------------------------|
----------------------------------|
----------------------------------|
------------------------------7~--|
--0--0-0-3-0-0-0-L-0-5-0-7p-6-----|


  |---3--| |---3--| |---3--| |---3--|  |--3--|  |---3--| |------5-----|
  S  S   S S  S   S S  S   S S  S   S  S  S  S  S  S   S S  S   S  S  S
------------------------------------------------------------------------|
------------------------------------------------------------------------|
-----------------------------7h-9h-12p-9p-7--------------7h-9h-12p-9p-7-|
--------------------7h-9h-12----------------12p-7h-9h-12----------------|
-----------5h-7h-10-----------------------------------------------------|
--5h-7h-10--------------------------------------------------------------|


  H         Q     Q        Q.       Q.      Q
-----------------------|--------------------------|
-----------------------|--------------------------|
--9~--------L----12----|--11~---------------------|
-----------------------|-----------12~------7~----|
-----------------------|--------------------------|
-----------------------|--------------------------|


  E.   T T  E  Q     Q    E     W                   H         Q     Q
-----------------------------|-------------------|-----------------------|
-----------------------------|-------------------|-----------------------|
-----------------------------|-------------------|--9~--------L----12----|
--7~---L-7s-9--9~----L----L--|--L----------------|-----------------------|
-----------------------------|-------------------|-----------------------|
-----------------------------|-------------------|-----------------------|


   H         Q     Q        W                      W
------------------------|----------------------|---------------------|
------------------13----|--12br----------------|--12~----------------|
--11~--------L----------|----------------------|---------------------|
------------------------|----------------------|---------------------|
------------------------|----------------------|---------------------|
------------------------|----------------------|---------------------|


   S   Q     S  Q     E   Q        S   Q     S  Q     E   Q
-------------------------------|-------------------------------|
--12h-13-----L-12~----L--------|--12h-13-----L-12~----L--------|
-------------------------12----|-------------------------12----|
-------------------------------|-------------------------------|
-------------------------------|-------------------------------|
-------------------------------|-------------------------------|


   H.              E   E      W                    Q.      Q.      Q
---------------------------|-------------------|------------------------|
---------------------------|-------------------|--13------12------------|
--11br---------------------|-------------------|------------------12----|
------------------12s--9~--|--L----------------|------------------------|
---------------------------|-------------------|------------------------|
---------------------------|-------------------|------------------------|


   Q.      Q.      Q         W
-------------------------|---------------------|
--13------12------15b----|--15~----------------|
-------------------------|---------------------|
-------------------------|---------------------|
-------------------------|---------------------|
-------------------------|---------------------|


    NH   NH   NH   NH
    E    E    E    E   E  E  E  E      Q    E   Q    E  Q
-----------------------------------|-------------------------|
-------<>7-------------------------|-------------------------|
--<>5-------<>7--------------------|--12-------11----L--7----|
-----------------<>7~--L--L--L--L--|---9--------9----L--9----|
-----------------------------------|---7----7---7----L--7----|
-----------------------------------|-------------------------|


   Q    E   Q    E   Q        Q    E  Q    E   Q       Q    E  Q    E  Q
--------------------------|-------------------------|-----------------------|
--------------------------|-------------------------|-----------------------|
--------------------------|--11-------9----L--11----|--6-------7----L--6----|
--12-------10----L--12----|---0----0--0----L---0----|--7-------7----L--7----|
--10-------10----L--10----|-------------------------|--0----0--0----L--0----|
---8----8---8----L---8----|-------------------------|-----------------------|


   Q    E   Q    E  Q        Q    E   Q    E   Q       Q    E  Q    E  Q
-------------------------|--------------------------|-----------------------|
-------------------------|--------------------------|-----------------------|
--12-------11----L--7----|--------------------------|-----------------------|
---9--------9----L--9----|--12-------10----L---9----|--7-------7----L--7----|
---7----7---7----L--7----|--10-------10----L--10----|--5----5--5----L--5----|
-------------------------|---8----8---8----L---8----|-----------------------|


  E  E  E  Q    E  Q        Q    E   Q    E  Q        Q    E   Q    E   Q
------------------------|-------------------------|--------------------------|
------------------------|-------------------------|--------------------------|
------------------------|--12-------11----L--7----|--------------------------|
------------------------|---9--------9----L--9----|--12-------10----L--12----|
-----------5----L--5----|---7----7---7----L--7----|--10-------10----L--10----|
--5--7--0--3----L--2----|-------------------------|---8----8---8----L---8----|


   Q    E   Q    E   Q       Q    E  Q    E  Q        Q    E   Q    E  Q
--------------------------|-----------------------|-------------------------|
--------------------------|-----------------------|-------------------------|
--11-------12----L--11----|--6-------7----L--6----|--12-------11----L--7----|
---0----0---0----L---0----|--7-------7----L--7----|---9--------9----L--9----|
--------------------------|--0----0--0----L--0----|---7----7---7----L--7----|
--------------------------|-----------------------|-------------------------|


   Q    E   Q    E   Q       Q    E  Q    E  Q       E  E  E  Q    E  Q
--------------------------|-----------------------|------------------------|
--------------------------|-----------------------|------------------------|
--------------------------|-----------------------|------------------------|
--12-------10----L---9----|--7-------7----L--7----|------------------------|
--10-------10----L--10----|--5----5--5----L--5----|-----------5----L--5----|
---8----8---8----L---8----|-----------------------|--5--7--0--3----L--2----|


  E  E  E  E  E  E  E  E     E  E  E  E  E  E  E  E
--------------------------|--------------------------|
--------------------------|--------------------------|
--------------------------|--------------------------|
--2--2--2--2-----2--2--2--|-----2--2--2--2-----------|
--2--2--2--2-----2--2--2--|-----2--2--2--2-----------|
--0--0--0--0-----0--0--0--|-----0--0--0--0-----------|


  E  E  E  E  E  E  E  E     E  E  E  E  E  E  E  E
--------------------------|--------------------------|
--------------------------|--------------------------|
--------------------------|--------------------------|
--------------------------|--------------------------|
--7--6--5--0-----3--2--1--|--------------------------|
--------------------------|-----5--4--3--------------|


           |--3-| |--3-|  |--3--|  |--3-|  |-3-|  |-3-|  |-3-|
  T  T T T S  S S S  S S  S  S  S  S  S S  S S S  S S S  S S S
-----------------------7-10-12-15-12-10-7----------------------|
---------------------------------------------------------------|
----------------7-9-12--------------------12-9-7-----------7-9-|
---------------------------------------------------------------|
--7-10-7-5-7-10----------------------------------10-5-7-10-----|
---------------------------------------------------------------|


   |--3-|  |--3--|  |--3-| |-3-|
   S S  S  S  S  S  S S  S S S S Q    E  E      E   E  E   Q     E   E   E
-----7-10-12-15-12-10-7---------------------|-----------------------15------|
--------------------------------------------|------12-----10----12------12--|
--12--------------------12-7-9-L-L----L--L--|--/9------9--------------------|
--------------------------------------------|-------------------------------|
--------------------------------------------|-------------------------------|
--------------------------------------------|-------------------------------|


   Q.        E   Q.        E
--14br------------------------|
------------15----------------|
----------------14br------12--|
------------------------------|
------------------------------|
------------------------------|


                               |--3--|
   Q     E   Q     T  T  T  T  S  S  S  T  T  T  T
---------------------------12-14-15-14-12----------|
------------------------12----------------12-------|
--11----12-----------12----------------------12----|
------------14----14----------------------------14-|
---------------------------------------------------|
---------------------------------------------------|


           |--3--|
   Q.      S  S  S  Q     E   E      S   E.   E   Q    E   Q
---------------------------------|------------------------------|
--13------12-13-12---------------|------------------------------|
-------------------14----12--11--|--11h-12---11s--7----9s--4----|
---------------------------------|------------------------------|
---------------------------------|------------------------------|
---------------------------------|------------------------------|


  E   E  E  Q    E  Q        S  S  S  S  S  S  S  S  S  S  S  S  S  S  S  S
-------------------------|-----------------------------------------------17-|
-------------------------|--------------------------------------------18----|
--4s--2--4--4----L--L----|-----------14-15-14----------------14----19-------|
-------------------------|--------15----------15----------15----20----------|
-------------------------|--13-17----------------17-13-17-------------------|
-------------------------|--------------------------------------------------|


   S  S  S  S  S  S  S  S  H
--18-17-----------------------------|
--------18--------------------------|
-----------19----14-----------------|
--------------20----15--------------|
-----------------------17-13--------|
------------------------------------|


   |--3--|
   S  S  S  S  S  S  S  S  S  S  S  S  S  S  S  S  S
--12-17-12----------------------------12-17-12-------|
-----------15----------------------15----------15----|
--------------14----------------14----------------14-|
-----------------15----------15----------------------|
--------------------17-12-17-------------------------|
-----------------------------------------------------|


            |--3--|
   E.   E   S  S  S  Q    Q    S     E   E   E   E   E   E   E   E
---------------------------------|--18------17------15------13------|
--18---17--18-17-15-15----L----L-|------15------15------15------11--|
---------------------------------|----------------------------------|
---------------------------------|----------------------------------|
---------------------------------|----------------------------------|
---------------------------------|----------------------------------|


   E   E   E   E   S  S  S  S  S  S  S  S     E.  E.   E   Q    Q
--12------10------------------------------|--------------------------|
------11------11--11-10-------11-10-------|--------------------------|
------------------------12-10-------12-10-|--10---9------------------|
------------------------------------------|-----------10-------------|
------------------------------------------|---------------10----L----|
------------------------------------------|--------------------------|


           |--3--|
   E.   S  S  S  S  E   Q    Q
----------------------------------|
----------------------------------|
--12---11--L-12-11----------------|
-------------------12-------------|
-----------------------12----L----|
----------------------------------|


     S  S  S  S  S  S  S  S  S  S  S  S  S  S  S  S  E    S  S
|------------------15-10----------------------------15s--19----|
|---------------13-------13----------------------13---------17-|
|*-----------12-------------12----------------12---------------|
|*--------16-------------------16----------16------------------|
|------14-------------------------14----14---------------------|
|---12-------------------------------12------------------------|


   S  S  S  S  S  S  S  S  S  S   S  S  S  S  S S   S  S  S   S
-----------------------------14s-15------------------------------||
--------------------------12--------13---------------------------||
--16-------------------11--------------12-----------------------*||
-----19-------------14--------------------12-------------14s-16-*||
--------17-------12--------------------------10-------12---------||
-----------15-10--------------------------------8s-10------------||


   S S S  S S S  S S S  S S S S S S S
--------------------------------------|
--------------------------------------|
--12-0-0-11-0-0-12-0-0-11-0-0-7-0-0-0-|
--------------------------------------|
--------------------------------------|
--------------------------------------|


   S S S  S S S  S S S  S S S  E    E
-----------------------------------------|
-----------------------------------------|
--12-0-0-11-0-0-16-0-0-14-0-0-12--(12)\--|
-----------------------------------------|
-----------------------------------------|
-----------------------------------------|


   S  S  S  S  S  S  S  S  S  S  S  S  S  S  S  S  E    S  S
-----------------15-10----------------------------15s--19----|
--------------13-------13----------------------13---------17-|
-----------12-------------12----------------12---------------|
--------16-------------------16----------16------------------|
-----14-------------------------14----14---------------------|
--12-------------------------------12------------------------|


   S  S  S  S  S  S  S  S  S  S   S  S  S  S  S S   S  S  S   S
-----------------------------14s-15-----------------------------|
--------------------------12--------13--------------------------|
--16-------------------11--------------12-----------------------|
-----19-------------14--------------------12-------------14s-16-|
--------17-------12--------------------------10-------12--------|
-----------15-10--------------------------------8s-10-----------|


   S S S  S S S  S S S  S S S S S S S     S S S  S S S  S S S  S S S  S S  S S
--------------------------------------|----------------------------------------|
--------------------------------------|----------------------------------------|
--12-0-0-11-0-0-12-0-0-11-0-0-7-0-0-0-|--12-0-0-11-0-0-16-0-0-14-0-0-12-0-12-0-|
--------------------------------------|----------------------------------------|
--------------------------------------|----------------------------------------|
--------------------------------------|----------------------------------------|


   S S S  S S S  S S S  S S S E    E       Q     Q     Q.      E
----------------------------------------|-------------------------|
----------------------------------------|--8~----7~---------------|
--12-0-0-11-0-0-12-0-0-11-0-0-7~--(7)\--|--------------7~------L--|
----------------------------------------|-------------------------|
----------------------------------------|-------------------------|
----------------------------------------|-------------------------|


  Q    E  E  Q      E  E     E   E  E   E    E   E   Q
--------------------------|-----12------------------------|
-------8------------------|-----12-----15s--14--12--------|
--9----------6br----------|------------15s--14--12--------|
--------------------7-----|-------------------------14----|
-----------------------7--|--L----------------------------|
--------------------------|--L----------------------------|


   7  7  7  7  7  7  7  7  7  7  7  7  7  7  7  7  7  7  7  7  7  7  7  7  7  7
   S  S  S  S  S  S  S  S  S  S  S  S  S  S  S  S  S  S  S  S  S  S  S  S  S  S
--------------------------------------------------------------------------------|
--------------------------------------------------------------------------------|
-----------------------------15-16-19-21-19-16-15-------------15-16-19-21-19-16-|
--------------------14-17-19----------------------19-14-17-19-------------------|
-----------13-16-18-------------------------------------------------------------|
--12-15-17----------------------------------------------------------------------|


   7  7  7  7  7  7  7  7  7  7  7  7  7  7
   S  S  S  S  S  S  S  S  S  S  S  S  S  S  H
------------------------------------------------------|
------------------------------------------------------|
-----------15-16-19-21-19-16-15-----------------------|
--14-17-19----------------------19-17-14-17-14--------|
------------------------------------------------------|
------------------------------------------------------|


   S  S  S  S  S  S  S  S  S  S  S  S  S  S  S  S
--------------------------------------------------|
--15-14-------15-14-15-14-------15-14-15-14-------|
--------16-14-------------16-14-------------16-14-|
--------------------------------------------------|
--------------------------------------------------|
--------------------------------------------------|


   I'm not Sure about this part...
   |-----------------3----------------|  |--3--|  |--3--|  |--3--|  |--3--|  |--
   S                               S  S  S  S  S  S  S  S  S  S  S  S  S  S  S
--17------------------------------15-14------------------------------------------|
----------------------------------------15-------15-13-12------------------------|
-------------------------------------------14-12----------14-12-11-14-12-11------|
----------------------------------------------------------------------------12---|
-------------------------------------------------------------------------------1-|
---------------------------------------------------------------------------------|


                                          NH   NH   NH   NH
   S  S  S  S  S  S  S  S  H              E    E    E    E  H
--------------------12-14-15~--------|-------------------------------|
-----------12-13-15------------------|-------<>7---------------------|
--11-12-14---------------------------|--<>5-------<>7----------------|
-------------------------------------|-----------------<>7--L--------|
-------------------------------------|-------------------------------|
-------------------------------------|-------------------------------|


   E  E  E   E  E  E  E  E      E  E   E   E  E   E  E  E
----------------------------|------------------------------|
----------------------------|------------------------------|
--12--------11--------9-----|------------------------------|
---------9---------9--------|--12---------10---------9-----|
------7---------7--------7--|---------10---------10--------|
----------------------------|------8----------8---------8--|


   E  E  E  E  E  E  E  E     E  E  E  E  E  E  E  E     H          H
---------------------------|--------------------------|----------------------|
---------------------------|--------------------------|----------------------|
---------------------------|--9--------7--------6-----|----------------------|
--10--------9--------7-----|--------7--------7--------|--5-------------------|
---------7--------7--------|-----5--------5--------5--|--3--------<>3--------|
------5--------5--------5--|--------------------------|----------------------|


    H        Q    E  S S    E  E  E  E  E  E  E  E
-------------------------|--------------------------|-----||
-------------------------|--------------------------|-----||
-------------------------|--------------------------|-----||
---------------------5-5-|--5-----------------------|-----||
--<>3--------L----L--3-3-|--3-----------------------|-----||
-------------------------|--------------------------|-----||


Duration Legend
---------------
W - whole
H - half
Q - quarter
E - 8th
S - 16th
T - 32nd
X - 64th
. - note dotted
|-n-|  - n-tuplets


Tablature Legend
----------------
L - tied note
x - dead note
g - grace note
(n) - ghost note
> - accentuded note
NH - natural harmonic
AH - artificial harmonic
TH - tapped harmonic
SH - semi harmonic
PH - pitch harmonic
h - hammer on
p - pull off
b - bend
br - bendRelease
pb - preBend
pbr - preBendRelease
brb - bendReleaseBend
\n/ - tremolo bar dip
\n - tremolo bar dive
-/n - tremolo bar Release up
/n\ - tremolo bar inverted dip
/n - tremolo bar return
-\n - tremolo bar Release down
S - shift slide
s - legato slide
/ -  slide into from below or out of upwards
\ -  slide into from above or out of downwards
~ - vibrato
W - wide vibrato
tr - trill
TP - tremolo picking
T - tapping
S - slap
P - pop
< - fade in
^ - brush up
v - brush down
Tap to rate this tab
# A B C D E F G H I J K L M N O P Q R S T U V W X Y Z