Sondaschule - Siega tab

Siega by Sondaschule

intro

e|-5-5-5-5-5-5-55-5-5-55-5-5-33-| x4
B|-5-5-5-5-5-5-55-5-5-55-5-5-33-|
G|-5-5-5-5-5-5-55-5-5-55-5-5-33-|
D|------------------------------|
A|------------------------------|
E|------------------------------|


Brass arranged for guitar

e|--------------------------------------------------------------------|
B|--------------------------------------------------------------------|
G|---9---6-7-6-------7----6-7-6------11----6-7-6------7---6-7----6-7--|
D|-7---7-------7--5-----7-------7--9-----7-------7--5----7-----7------|
A|--------------------------------------------------------------------|
E|--------------------------------------------------------------------|


then intro again as verse
Tap to rate this tab
 
# A B C D E F G H I J K L M N O P Q R S T U V W X Y Z