Song name
# A B C D E F G H I J K L M N O P Q R S T U V W X Y Z

Sondaschule - Siega tab

So, das hier ist mein erstes Tab. Der Refrain ist noch nicht 100-prozentig korrekt, ich 
ihn aber noch vervollständigen. Die Akkorde während der Strophe werden als Powerchords 
in der Bridge am Ende des Songs als volle Akkorde gespielt.

Intro:

e|-5-5-5-5-5-5-55-5-5-55-5-5-33-| x4
B|-5-5-5-5-5-5-55-5-5-55-5-5-33-|
G|-5-5-5-5-5-5-55-5-5-55-5-5-33-|
D|------------------------------|
A|------------------------------|
E|------------------------------|

Brass:

e|--------------------------------|
B|----0---------------------------|
G|-----------0-1-0---0------0-----|
D|--2----2-4--------------4---4-0-|
A|-----------------3----3---------|
E|--------------------------------|

Verse/Bridge:

a F G


Refrain:

e|--3--5-----------5--3--5----|
B|--3--5--------2--5--3--5--2-|
G|--3--5--------2--5--3--5--2-|
D|--3--5--5--4--2--5--3--5--2-|
A|--3--5--3--2-----5--3--5----|
E|--3--5-----------5--3--5----|

(...) So kann es gehn

	A G F G
Tap to rate this tab
 
# A B C D E F G H I J K L M N O P Q R S T U V W X Y Z