Song name
# A B C D E F G H I J K L M N O P Q R S T U V W X Y Z

Sondre Lerche - Dan And Marie Picking Hum tab

Help us improve GuitareTab! Take a short survey!
-------------------------------------------------------------------------------
			     Dan and Marie Picking Hum - Sondre Lerche
-------------------------------------------------------------------------------
Tabbed by: Jeremy Aregood
Email: enthrallingentropy@gmail.com
Tuning: Standard

e|------------------------1--------1p0-------0----------0----------0---------0-----|
B|----6----------6----0-0----0-0-0----0-0--1----1-1p0-0----0-0--1-----1-1--1----1--|
G|--7----7-7p5-5----5----0----0---0----0----0----0-----0----0-----2----2----0----0-|x2
D|---7----7-----7----6-------------------------------------------------------------|
A|-5---------5----------------------------3---------3----------0----------0--------|
E|---------------------3--------3--------------------------------------------------|

e|------------------------1--------1-----0----------0----------0---------0---------|
B|----6----------6----0-0----0-0-0--0--1----1-1p0-0----0-0--1-----1-1--1----1------|
G|--7----7-7p5-5----5----0----0---0--0--0----0-----0----0-----2----2----0----0-----|
D|---7----7-----7----6-------------------------------------------------------------|
A|-5---------5------------------------3---------3----------0----------0------------|
E|---------------------3--------3--------------------------------------------------|

e|------------------------1--------1-----0---------0-----------0----3--------------|
B|----6----------6----0-0----0-0-0--0--1----1p01p0-0-0------1---1-1-1--------------|
G|--7----7-7p5-5----5----0----0---0--0--0----------00-0----2--0-----0--------------|
D|---7----7-----7----6-----------------------------2------2---------2--------------|
A|-5---------5------------------------3------------3-----0----------3--------------|
E|---------------------3--------3-----------------------0--------------------------|

2nd Guitar
e|---------------------------------------------------------------------------------|
B|---------------------------------------------------------------------------------|
G|---------------------------------------------------------------------------------|
D|-5-3-5-3--2-0-2-3--3-2-3-2--0---0-2----------------------------------------------|
A|------------------------------3--------------------------------------------------|
E|---------------------------------------------------------------------------------|


The Chords Are:
 Dm    Dm7    G7    C    C7M   Am    Am7   C*
--x-- --x-- --1-- --0-- --0-- --0-- --0-- --3--
--6-- --6-- --0-- --1-- --0-- --1-- --1-- --1--
--7-- --5-- --0-- --0-- --0-- --2-- --0-- --0--
--7-- --7-- --x-- --2-- --2-- --2-- --2-- --2--
--5-- --5-- --x-- --3-- --3-- --0-- --0-- --3--
--x-- --x-- --3-- --x-- --x-- --x-- --x-- --x--

| /  slide up
| \  slide down
| h  hammer-on
| p  pull-off
| ~  vibrato
| +  harmonic
| x  Mute note
===============================================================================
Related for Dan And Marie Picking Hum tab