Song name
# A B C D E F G H I J K L M N O P Q R S T U V W X Y Z

Sondre Lerche - Family Theme tab

---------Family-Theme---------------------|
-----------Sondre-Lerche------------------|
--------------Dan-In-Real-Life------------|  by M17


e----0-------0-------0---9-------------------|
B----2-------2-------------------------------|
G----2--2-1--1---4/-3--6--4/3----------------|
D----2-2-----2-------------------------------|
A--0-0-0---0-0-------------------------------|
E--------------------------------------------|X2


e--4-4--2-2--4-4-0-0-44----------------------|
B--5-5--2-2--3-3-0-0-55-7---7----------------|
G--6-6--3-3--4-4-1-1-66-6---6----------------|
D--6-6--4-4--4-4-2-2-66-7---7----------------|
A--4-4--4-4--2-2-2-2-44-6x4-5x4--------------|
E-------2-2------0-0-------------------------|

thats it. have fun
Tap to rate this tab
# A B C D E F G H I J K L M N O P Q R S T U V W X Y Z