Song name
# A B C D E F G H I J K L M N O P Q R S T U V W X Y Z

Sondre Lerche - Dead Passengers tab

Highlighted       Show chord diagrams
Dead Passengers
by Sondre Lerche


Chords used:
------------

    E7M   A    C7   Bm7      A7   G7    E  Edim  Am7      
E||--7----0-----8----7----|--5----3----x----6----5----||
B||--9----5-----8----7----|--5----3----9----8----5----||
G||--8----6-----9----7----|--4----4----9----6----5----||
D||--9----6-----8----7----|--5----3----9----8----5----||
A||--7----7----10----9----|--7----5----7----7----7----||
E||--0----5-----8----7----|--5----3----0---------5----||

Or, if you don't like playing too many barre chords,
you may play the song with these (please note that
I've kept the same chord names as above to make
reference easier):

    E7M   A    C7   Bm7      A7   G7    E  Edim  Am7 
E||-------0-----0----2----|--0----2----0----0----0----||
B||--0----2-----1----3----|--2----0----0----2----1----||
G||--1----1-----3----2----|--0----0----1----0----0----||
D||--1----2-----2----4----|--2----0----2----2----2----||
A||--2----0-----3----2----|--0----2----2----1----0----||
E||-----------------------|-------3----0--------------||


  E7M
When there is light from up above
  E7M
then there will come a sacred dove
          A              E7M
to the basement, to the basement

  E7M
When there is fear you won´t have to cry
  E7M
napkins are here, they´ll dry your eyes
     A              E7M
and blind them, and blind them

        C7    Bm7      A7   G7
They will come to your home
            C7    Bm7           
When they are here
     E7M
faces down

  E7M
When there is greed taking control
  E7M                                 A
moving the bricks and starving the older people
    E7M
oh, people

   E7M
if you seek shelter from your past
   E7M                                              A
they´ll come to point their fingers where you cast your shadow
          E7M
cast your shadow

        C7    Bm7      A7   G7
They will come to your home
            C7    Bm7           
When they are here
     E7M
faces down

   E
But you
          Edim
have been fooled
          Am7
You knew the rules
   E7M
by heart
      E
There is
     Edim
no guarantee
         Am7
against infamy
     E
out there

  E7M
When there is trouble on the road
  E7M               
dead passengers will guide you home
         A
they will lead you
               E7M
if they can just feed you

        C7    Bm7      A7   G7
They will come to your home
            C7    Bm7           
When they are here
     E7M
faces down
Tap to rate this tab
# A B C D E F G H I J K L M N O P Q R S T U V W X Y Z