Song name
# A B C D E F G H I J K L M N O P Q R S T U V W X Y Z

Sondre Lerche - Dan In Real Life tab

Dan in Real Life - Sondre Lerche
Featured on the Dan in Real Life Soundtrack

=============================================
Tabbed by: Kris B.
Email: arbitrarylabelsincorporated@yahoo.com
Date: November 23, 2007
=============================================



Tuning: Standard

e|---------------------------------|
B|---------------------------------|
G|-----1---1------1----1---1---1---|  X4
D|--3----3------3----3---3---3-----|
A|--------------0------------------|
E|--0------------------------------|

e|--------------------------------------|
B|-------1------------------------------|
G|-----------1--------1----1---1---1----|
D|--0h3----3-----0h3-----3---3---3------|
A|---------------0----------------------|
E|--0-----------------------------------|

e|--------------------------------------|
B|--------------------------------------|
G|-------1---1--------1----1---1---1----|
D|--0h3----3-----0h3-----3---3---3------|
A|---------------0----------------------|
E|--0-----------------------------------|

e|--------------------1-----------------|
B|-------1------------------------------|
G|-------1---1--------1----1---1---1----|
D|--0h3----3-----0h3-----3---3---3------|
A|---------------0----------------------|
E|--0-----------------------------------|

e|--------------------------------------|
B|--------------------------------------|
G|-------1---1--------1----1---1---1----|
D|--0h3----3-----0h3-----3---3---3------|
A|---------------0----------------------|
E|--0-----------------------------------|

e|----------------------------------|
B|----------------------------------|
G|-----1---1------1----1---1---1---1|
D|--3----3------3----3---3---3---3--|
A|--------------0-------------------|
E|----------------------------------|


This was relatively easy to tab, but the simplicity of the whole song is what makes it. Enjoy.
Tap to rate this tab
 
# A B C D E F G H I J K L M N O P Q R S T U V W X Y Z