Song name
# A B C D E F G H I J K L M N O P Q R S T U V W X Y Z

Songs Of Trees - Can I Say tab

Standard Tuning
Video tutorial here: http://youtu.be/ZHvFNmVKdUw

Part1

Esus4 Shape
E------------------------------------------------------------------------|
B---0-----------0--------------------------------0----------------0------|
G---2-------2-------2----------0---1-------1-------1---------------------|
D---0---0---------------0--------------0----------------0----------------|
A---2-----------------------2-------2------------------------2-----------|
E------------------------------------------------------------------------|

A Shape
E--------------------------------------------------------------------------------------------------|
B---2------------2---------------------------------2-------------------------------2---------------|
G---2-------2--------2-----------0----1-------1-------1-----------1---0-------0-------0------------|
D-------2-----------------2---------------2----------------2---------------2----------------2------|
A---0-------------------------0-------0------------------------0-------0------------------------0--|
E--------------------------------------------------------------------------------------------------|

Dm Shape
E--------1-----------1-----------------------|
B---3----3-------3-------3-----------3-------|
G--------2---2----------------2--------------|
D--------0------------------------0----------|
A--------------------------------------------|
E--------------------------------------------|

G & A Shapes
E----------------3-------------------------------0----|
B---3---------------3-----------0---2-----------------|
G---0-------0----------0-------------------2----------|
D---0---0-------------------------------2-------------|
A------------------------------------0----------------|
E---3-----------------------3-------------------------|

Repeat Esus4 Shape
E------------------------------------------------------------------------|
B---0-----------0--------------------------------0----------------0------|
G---2-------2-------2----------0----1-------1-------1--------------------|
D---0---0---------------0--------------0----------------0----------------|
A---2-----------------------2-------2------------------------2-----------|
E------------------------------------------------------------------------|

A Shape
E----------------0--------------------------------0-----|
B---2---------------2-----------------------------------|
G---2-------2----------2-------2------------2-----------|
D-------2--------------------------------2--------------|
A---0-----------------------0-------0-------------------|
E-------------------------------------------------------|


Part2

Bm & F#m Shape
E----------------2---------------------------------2--------|
B---3---------------3------------2---2---------------2------|
G-----------4-----------4------------2--------2-------------|
D-------4----------------------------------4----------------|
A---2-----------------------2-------------------------------|
E------------------------------------2----------------------|

A & E Shape
E----------------0--------------------------------0----|
B---2---------------2----------------0-----------------|
G---2-------2----------2-------2-----1-------1---------|
D-------2----------------------------2---2-------------|
A---0-----------------------0--------------------------|
E------------------------------------0-----------------|

Bm, F#m & F Shapes
E----------------2---------------------------------2----------------1---------------|
B---3---------------3------------2---2----------------1---------------1-------------|
G-----------4-----------4------------2--------2-------2-------2----------2----------|
D-------4----------------------------------4----------3---3-------------------------|
A---2-----------------------2-------------------------------------------------------|
E------------------------------------2----------------1----------------------0------|

E7 & A Shapes
E-------------------------------------------------0--------------------------------0----|
B---0-----------0-------------------2---------------2-----------------------------------|
G---1-------1------1-----------1----2-------2----------2-------2------------2-----------|
D---0---0--------------0---------------2--------------------------------2---------------|
A-----------------------------------0-----------------------0-------0-------------------|
E---0-----------------------0-----------------------------------------------------------|


Part3

Esus4 Shape
E------------------------------------------------------------------------|
B---0-----------0-------------------------------0----------------0-------|
G---2-------2-------2----------0----1-------1-------1--------------------|
D---0---0---------------0--------------0----------------0----------------|
A---2-----------------------2-------2------------------------2-----------|
E------------------------------------------------------------------------|

Dm & A Shape
E----1-----------1----------------1---------0------|
B----3-------3-------3--------------------1--------|
G----2---2----------------2-------------1----------|
D----0------------------------0--------1-----------|
A-------------------------------------0------------|
E--------------------------------------------------|



Lyrics
======
Can I say that I missed you,
So far away,
I got through the working day,
Imagining I was alone with you.

How I wish I could just find a job,
In a place where I could finish work,
And travel back to you at night.

Can I say that I missed you,
Feet off the ground,
Distractions all around,
And all I wanted was to be with you

How I wish I could just find a job,
In a place where I could come back home,
And spend the night with you just once.

Can I say that I missed you.
Tap to rate this tab
# A B C D E F G H I J K L M N O P Q R S T U V W X Y Z