Guitaretab - guitar tabs
Song name
# A B C D E F G H I J K L M N O P Q R S T U V W X Y Z

Sonic Boom Six - Northern Skies tab

Sonic Boom Six: Northern Skies
Tabbed by: Zach D.
Tuning: Standard

I was going over the internet and noticed that Northern Skies had no tab, so I decided
quickly tab it out while bored. If you notice any errors, feel free to comment on what
to be changed! Hope you guys like this!


Play this the entire song, strum changes. Just listen to the song for the correct strum.
to play it in the ska style (mute the string on the "x" [or whatever the strum might
such as --x-,--x-,--x- . . .]). If you'd like, you can turn the "ska chords"/triads into 
chords by simply barring your finger (Example: for the "555" triad [the first chord],
be "577555" for the second, the "565," it would be, "577565.").
[ Tab from: http://www.guitaretab.com/s/sonic-boom-six/185542.html ]
E|--5-x-5-x-3-x-3-x-5-x-5-x-8-x-7--------------------|
A|--5-x-6-x-5-x-3-x-5-x-6-x-8-x-8--------------------|
D|--5-x-5-x-5-x-4-x-5-x-5-x-9-x-7--------------------|
G|---------------------------------------------------|
B|---------------------------------------------------|
E|---------------------------------------------------|


Play this on the distortion part, during the middle. Listen for the change.

E|-5--3-----------------------------------------------|
A|-5--3-----------------------------------------------|
D|-5--4-----------------------------------------------|
G|-7--5-----------------------------------------------|
B|-7--5-----------------------------------------------|
E|-5--3-----------------------------------------------|
Related for Northern Skies tab