Song name
# A B C D E F G H I J K L M N O P Q R S T U V W X Y Z

Sonic Mayhem - Quad Machine tab

-------------------------------------------------------------------------------
Song: Quad Machine
Artist: Sonic Mayhem
Album: Quake II
-------------------------------------------------------------------------------

Tabbed by: maverick8388
E-mail: maverick_8388@hotmail.com

Tuning: Standard - one-half step down
        Eb-Ab-Db-Gb-Bb-eb



************************************

  /   slide up
  \   slide down
  h   hammer-on
  p   pull-off
  ~   sustain note
  *   palm-mute note
  
************************************



Intro/Verse: 2x

\\\\\\\\\\\\\\\\\\\\\\\\\\\\\\\\\\\\\\\\\\\\\\\\\\\\\\\\\\\\\\\\\\\\\\\\\\\\\\\\\\\

e|--------------------------------------------------------------------------------|
B|--------------------------------------------------------------------------------|
G|--------------------------------------------------------------------------------|
D|--------------------------------------------------------------------------------|
A|--------------------5----7h---5----7h-------------5----7h-------------2----3h---|
E|0----0----0----0------------------------0----0--------------0----0--------------|
  *    *    *    *                        *    *              *    *
e|--------------------------------------------------------------------------------|
B|--------------------------------------------------------------------------------|
G|--------------------------------------------------------------------------------|
D|--------------------------------------------------------------------------------|
A|------------------------------5----7h-------------2----3h-----------------------|
E|0----0----0----0----0----0--------------0----0--------------0----0----5----7h---|
  *    *    *    *    *    *              *    *              *    *
e|--------------------------------------------------------------------------------|
B|--------------------------------------------------------------------------------|
G|--------------------------------------------------------------------------------|
D|--------------------------------------------------------------------------------|
A|--------------------5----7h---5----7h-------------5----7h-------------2----3h---|
E|0----0----0----0------------------------0----0--------------0----0--------------|
  *    *    *    *                        *    *              *    *
e|--------------------------------------------------------------------------------|
B|--------------------------------------------------------------------------------|
G|--------------------------------------------------------------------------------|
D|--------------------------------------------------------------------------------|
A|------------------------------5----7h-------------2----3h-----------------------|
E|0----0----0----0----0----0--------------0----0--------------0----0----5----7h---|
  *    *    *    *    *    *              *    *              *    *
e|--------------------------------------------------------------------------------|
B|--------------------------------------------------------------------------------|
G|--------------------------------------------------------------------------------|
D|--------------------------------------------------------------------------------|
A|--------------------5----7h---5----7h-------------5----7h-------------2----3h---|
E|0----0----0----0------------------------0----0--------------0----0--------------|
  *    *    *    *                        *    *              *    *
e|--------------------------------------------------------------------------------|
B|--------------------------------------------------------------------------------|
G|--------------------------------------------------------------------------------|
D|--------------------------------------------------------------------------------|
A|------------------------------5----7h-------------2----3h-----------------------|
E|0----0----0----0----0----0--------------0----0--------------0----0----5----7h---|
  *    *    *    *    *    *              *    *              *    *
e|--------------------------------------------------------------------------------|
B|--------------------------------------------------------------------------------|
G|--------------------------------------------------------------------------------|
D|--------------------------------------------------------------------------------|
A|--------------------5----7h---5----7h-------------5----7h-------------2----3h---|
E|0----0----0----0------------------------0----0--------------0----0--------------|
  *    *    *    *                        *    *              *    *
e|--------------------------------------------------------------------------------|
B|--------------------------------------------------------------------------------|
G|--------------------------------------------------------------------------------|
D|--------------------------------------------------------------------------------|
A|------------------------------5----7h-------------5~~~~~~~~~4~~~~~~~~~3~~~~~~~~~|
E|0----0----0----0----0----0--------------0----0----3~~~~~~~~~2~~~~~~~~~1~~~~~~~~~|
  *    *    *    *    *    *              *    *                  

\\\\\\\\\\\\\\\\\\\\\\\\\\\\\\\\\\\\\\\\\\\\\\\\\\\\\\\\\\\\\\\\\\\\\\\\\\\\\\\\\\\



Bridge A: 3x

\\\\\\\\\\\\\\\\\\\\\\\\\\\\\\\\\\\\\\\\\\\\\\\\\\\\\\\\\\\\\\\\\\\\\\\\\\\\\\\\\\\

e|--------------------------------------------------------------------------------|
B|--------------------------------------------------------------------------------|
G|--------------------------------------------------------------------------------|
D|--------------------------------------------------------------------------------|
A|2----2---------2---------2----2----2---------2----------------------------------|
E|0----0---------0---------0----0----0---------0---------0----1----0----3----0----|
  *    *         *         *    *    *         *
e|--------------------------------------------------------------------------------|
B|--------------------------------------------------------------------------------|
G|--------------------------------------------------------------------------------|
D|--------------------------------------------------------------------------------|
A|2----2---------2---------2----2----2---------2----------------------------------|
E|0----0---------0---------0----0----0---------0---------0----5----0----7----0----|
  *    *         *         *    *    *         *
e|--------------------------------------------------------------------------------|
B|--------------------------------------------------------------------------------|
G|--------------------------------------------------------------------------------|
D|--------------------------------------------------------------------------------|
A|2----2---------2---------2----2----2---------2----------------------------------|
E|0----0---------0---------0----0----0---------0---------0----1----0----3----0----|
  *    *         *         *    *    *         *
e|--------------------------------------------------------------------------------|
B|--------------------------------------------------------------------------------|
G|--------------------------------------------------------------------------------|
D|--------------------------------------------------------------------------------|
A|2----2---------2---------2----2----2---------2-----------------------------5----|
E|0----0---------0---------0----0----0---------0---------0----5----6----7---------|
  *    *         *         *    *    *         *

\\\\\\\\\\\\\\\\\\\\\\\\\\\\\\\\\\\\\\\\\\\\\\\\\\\\\\\\\\\\\\\\\\\\\\\\\\\\\\\\\\\



Chorus A: 2x

\\\\\\\\\\\\\\\\\\\\\\\\\\\\\\\\\\\\\\\\\\\\\\\\\\\\\\\\\\\\\\\\\\\\\\\\\\\\\\\\\\\

|!| Notes in paranthesis are played by a second guitar.

e|--------------------------------------------------------------------------------|
B|--------------------------------------------------------------------------------|
G|--------------------------------------------------------------------------------|
D|9~~~~~~~~~~~~~~~~~~~7~~~~~~~~~~~~~~~~~~~----------------------------------------|
A|7~~~~~~~~~~~~~~~~~~~5~~~~~~~~~~~~~~~~~~~--------------------5~~~~~~~~~8~~~~~~~~~|
E|----------------------------------------7----5----0---------3~~~~~~~~~6~~~~~~~~~|

e|---------(15~~~~~~~~15~~~~~~~~15~~~~~~~~15~~~~~~~\12~~~~~~~~12~~~~~~~~)---------|
B|--------------------------------------------------------------------------------|
G|--------------------------------------------------------------------------------|
D|--------------------------------------------------------------------------------|
A|~~~~~~~~~~~~~~~~~~~~~~~~~~~~~~~~~~~~~~~~~~~~~~~~~~~~~~~~~~~~~~~~~~~~~~~~~~~~~~~~|
E|~~~~~~~~~~~~~~~~~~~~~~~~~~~~~~~~~~~~~~~~~~~~~~~~~~~~~~~~~~~~~~~~~~~~~~~~~~~~~~~~|

e|--------------------------------------------------------------------------------|
B|--------------------------------------------------------------------------------|
G|--------------------------------------------------------------------------------|
D|9~~~~~~~~~~~~~~~~~~~7~~~~~~~~~~~~~~~~~~~----------------------------------------|
A|7~~~~~~~~~~~~~~~~~~~5~~~~~~~~~~~~~~~~~~~--------------------5~~~~~~~~~8~~~~~~~~~|
E|----------------------------------------7----5----0---------3~~~~~~~~~6~~~~~~~~~|

e|---------(15~~~~~~~~15~~~~~~~~15~~~~~~~~15~~~~~~~\12~~~~~~~~12~~~~~~~~)---------|
B|--------------------------------------------------------------------------------|
G|--------------------------------------------------------------------------------|
D|--------------------------------------------------------------------------------|
A|~~~~~~~~~~~~~~~~~~~~~~~~~~~~~~~~~~~~~~~~8---------7---------5---------2---------|
E|~~~~~~~~~~~~~~~~~~~~~~~~~~~~~~~~~~~~~~~~6---------5---------3---------0---------|
                                          *         *         *         *

\\\\\\\\\\\\\\\\\\\\\\\\\\\\\\\\\\\\\\\\\\\\\\\\\\\\\\\\\\\\\\\\\\\\\\\\\\\\\\\\\\\



Verse: 2x

\\\\\\\\\\\\\\\\\\\\\\\\\\\\\\\\\\\\\\\\\\\\\\\\\\\\\\\\\\\\\\\\\\\\\\\\\\\\\\\\\\\

|!| Notes in paranthesis sound like synth but can be played by a second guitar.
    
e|--------------------------------------------------------------------------------|
B|--------------------------------------------------------------------------------|
G|--------------------------------------------------------------------------------|
D(9~~~~~~~~~~~~~~~~~~~~~~~~~~~~~~~~~~~~~~~~~~~~~~~~~~~~~~~~~~~~~~~~~~~~~~~~~~~~~~~)
A|--------------------5----7h---5----7h-------------5----7h-------------2----3h---|
E|0----0----0----0------------------------0----0--------------0----0--------------|
  *    *    *    *                        *    *              *    *
e|--------------------------------------------------------------------------------|
B|--------------------------------------------------------------------------------|
G|--------------------------------------------------------------------------------|
D(~~~~~~~~~~~~~~~~~~~~~~~~~~~~~~~~~~~~~~~~~~~~~~~~~~~~~~~~~~~~~~~~~~~~~~~~~~~~~~~~)
A|------------------------------5----7h-------------2----3h-----------------------|
E|0----0----0----0----0----0--------------0----0--------------0----0----5----7h---|
  *    *    *    *    *    *              *    *              *    *
e|--------------------------------------------------------------------------------|
B|--------------------------------------------------------------------------------|
G|--------------------------------------------------------------------------------|
D(10~~~~~~~~~~~~~~~~~~~~~~~~~~~~~~~~~~~~~~~~~~~~~~~~~~~~~~~~~~~~~~~~~~~~~~~~~~~~~~)
A|--------------------5----7h---5----7h-------------5----7h-------------2----3h---|
E|0----0----0----0------------------------0----0--------------0----0--------------|
  *    *    *    *                        *    *              *    *
e|--------------------------------------------------------------------------------|
B|--------------------------------------------------------------------------------|
G|--------------------------------------------------------------------------------|
D(~~~~~~~~~~~~~~~~~~~~~~~~~~~~~~~~~~~~~~~~~~~~~~~~~~~~~~~~~~~~~~~~~~~~~~~~~~~~~~~~)
A|------------------------------5----7h-------------2----3h-----------------------|
E|0----0----0----0----0----0--------------0----0--------------0----0----5----7h---|
  *    *    *    *    *    *              *    *              *    *
e|--------------------------------------------------------------------------------|
B|--------------------------------------------------------------------------------|
G|--------------------------------------------------------------------------------|
D(12~~~~~~~~~~~~~~~~~~~~~~~~~~~~~~~~~~~~~~~~~~~~~~~~~~~~~~~~~~~~~~~~~~~~~~~~~~~~~~)
A|--------------------5----7h---5----7h-------------5----7h-------------2----3h---|
E|0----0----0----0------------------------0----0--------------0----0--------------|
  *    *    *    *                        *    *              *    *
e|--------------------------------------------------------------------------------|
B|--------------------------------------------------------------------------------|
G|--------------------------------------------------------------------------------|
D(~~~~~~~~~~~~~~~~~~~~~~~~~~~~~~~~~~~~~~~~~~~~~~~~~~~~~~~~~~~~~~~~~~~~~~~~~~~~~~~~)
A|------------------------------5----7h-------------2----3h-----------------------|
E|0----0----0----0----0----0--------------0----0--------------0----0----5----7h---|
  *    *    *    *    *    *              *    *              *    *
e|--------------------------------------------------------------------------------|
B|--------------------------------------------------------------------------------|
G|--------------------------------------------------------------------------------|
D(10~~~~~~~~~~~~~~~~~~~~~~~~~~~~~~~~~~~~~~~~~~~~~~~~~~~~~~~~~~~~~~~~~~~~~~~~~~~~~~)
A|--------------------5----7h---5----7h-------------5----7h-------------2----3h---|
E|0----0----0----0------------------------0----0--------------0----0--------------|
  *    *    *    *                        *    *              *    *
e|--------------------------------------------------------------------------------|
B|--------------------------------------------------------------------------------|
G|--------------------------------------------------------------------------------|
D(~~~~~~~~~~~~~~~~~~~~~~~~~~~~~~~~~~~~~~~~~~~~~~~~~~~~~~~~~~~~~~~~~~~~~~~~~~~~~~~~)
A|------------------------------5----7h-------------5~~~~~~~~~4~~~~~~~~~3~~~~~~~~~|
E|0----0----0----0----0----0--------------0----0----3~~~~~~~~~2~~~~~~~~~1~~~~~~~~~|
  *    *    *    *    *    *              *    *                  

\\\\\\\\\\\\\\\\\\\\\\\\\\\\\\\\\\\\\\\\\\\\\\\\\\\\\\\\\\\\\\\\\\\\\\\\\\\\\\\\\\\



Chorus B: 2x

\\\\\\\\\\\\\\\\\\\\\\\\\\\\\\\\\\\\\\\\\\\\\\\\\\\\\\\\\\\\\\\\\\\\\\\\\\\\\\\\\\\

e|--------------------------------------------------------------------------------|
B|--------------------------------------------------------------------------------|
G|--------------------------------------------------------------------------------|
D|9~~~~~~~~~~~~~~~~~~~7~~~~~~~~~~~~~~~~~~~----------------------------------------|
A|7~~~~~~~~~~~~~~~~~~~5~~~~~~~~~~~~~~~~~~~--------------------5~~~~~~~~~8~~~~~~~~~|
E|----------------------------------------7----5----0---------3~~~~~~~~~6~~~~~~~~~|

e|---------(15~~~~~~~~15~~~~~~~~15~~~~~~~~15~~~~~~~\12~~~~~~~~12~~~~~~~~)---------|
B|--------------------------------------------------------------------------------|
G|--------------------------------------------------------------------------------|
D|--------------------------------------------------------------------------------|
A|~~~~~~~~~~~~~~~~~~~~~~~~~~~~~~~~~~~~~~~~~~~~~~~~~~~~~~~~~~~~~~~~~~~~~~~~~~~~~~~~|
E|~~~~~~~~~~~~~~~~~~~~~~~~~~~~~~~~~~~~~~~~~~~~~~~~~~~~~~~~~~~~~~~~~~~~~~~~~~~~~~~~|

e|--------------------------------------------------------------------------------|
B|--------------------------------------------------------------------------------|
G|--------------------------------------------------------------------------------|
D|9~~~~~~~~~~~~~~~~~~~7~~~~~~~~~~~~~~~~~~~----------------------------------------|
A|7~~~~~~~~~~~~~~~~~~~5~~~~~~~~~~~~~~~~~~~--------------------5~~~~~~~~~8~~~~~~~~~|
E|----------------------------------------7----5----0---------3~~~~~~~~~6~~~~~~~~~|

e|---------(15~~~~~~~~15~~~~~~~~15~~~~~~~~15~~~~~~~\12~~~~~~~~12~~~~~~~~)---------|
B|--------------------------------------------------------------------------------|
G|--------------------------------------------------------------------------------|
D|--------------------------------------------------------------------------------|
A|~~~~~~~~~~~~~~~~~~~~~~~~~~~~~~~~~~~~~~~~8---------7---------5---------2---------|
E|~~~~~~~~~~~~~~~~~~~~~~~~~~~~~~~~~~~~~~~~6---------5---------3---------0---------|
                                          *         *         *         *

\\\\\\\\\\\\\\\\\\\\\\\\\\\\\\\\\\\\\\\\\\\\\\\\\\\\\\\\\\\\\\\\\\\\\\\\\\\\\\\\\\\



Bridge B: 4x

\\\\\\\\\\\\\\\\\\\\\\\\\\\\\\\\\\\\\\\\\\\\\\\\\\\\\\\\\\\\\\\\\\\\\\\\\\\\\\\\\\\

e|--------------------------------------------------------------------------------|
B|--------------------------------------------------------------------------------|
G|--------------------------------------------------------------------------------|
D|--------------------------------------------------------------------------------|
A|2----2---------2---------2----2----2---------2----------------------------------|
E|0----0---------0---------0----0----0---------0---------0----1----0----3----0----|
  *    *         *         *    *    *         *
e|--------------------------------------------------------------------------------|
B|--------------------------------------------------------------------------------|
G|--------------------------------------------------------------------------------|
D|--------------------------------------------------------------------------------|
A|2----2---------2---------2----2----2---------2----------------------------------|
E|0----0---------0---------0----0----0---------0---------0----5----0----7----0----|
  *    *         *         *    *    *         *
e|--------------------------------------------------------------------------------|
B|--------------------------------------------------------------------------------|
G|--------------------------------------------------------------------------------|
D|--------------------------------------------------------------------------------|
A|2----2---------2---------2----2----2---------2----------------------------------|
E|0----0---------0---------0----0----0---------0---------0----1----0----3----0----|
  *    *         *         *    *    *         *
e|--------------------------------------------------------------------------------|
B|--------------------------------------------------------------------------------|
G|--------------------------------------------------------------------------------|
D|--------------------------------------------------------------------------------|
A|2----2---------2---------2----2----2---------2-----------------------------5----|
E|0----0---------0---------0----0----0---------0---------0----5----6----7---------|
  *    *         *         *    *    *         *

\\\\\\\\\\\\\\\\\\\\\\\\\\\\\\\\\\\\\\\\\\\\\\\\\\\\\\\\\\\\\\\\\\\\\\\\\\\\\\\\\\\



Outro/Verse A: 2x

\\\\\\\\\\\\\\\\\\\\\\\\\\\\\\\\\\\\\\\\\\\\\\\\\\\\\\\\\\\\\\\\\\\\\\\\\\\\\\\\\\\

e|--------------------------------------------------------------------------------|
B|--------------------------------------------------------------------------------|
G|--------------------------------------------------------------------------------|
D|--------------------------------------------------------------------------------|
A|--------------------5----7h---5----7h-------------5----7h-------------2----3h---|
E|0----0----0----0------------------------0----0--------------0----0--------------|
  *    *    *    *                        *    *              *    *
e|--------------------------------------------------------------------------------|
B|--------------------------------------------------------------------------------|
G|--------------------------------------------------------------------------------|
D|--------------------------------------------------------------------------------|
A|------------------------------5----7h-------------2----3h-----------------------|
E|0----0----0----0----0----0--------------0----0--------------0----0----5----7h---|
  *    *    *    *    *    *              *    *              *    *

\\\\\\\\\\\\\\\\\\\\\\\\\\\\\\\\\\\\\\\\\\\\\\\\\\\\\\\\\\\\\\\\\\\\\\\\\\\\\\\\\\\



Outro/Verse B: 2x

\\\\\\\\\\\\\\\\\\\\\\\\\\\\\\\\\\\\\\\\\\\\\\\\\\\\\\\\\\\\\\\\\\\\\\\\\\\\\\\\\\\

e|--------------------------------------------------------------------------------|
B|--------------------------------------------------------------------------------|
G|--------------------------------------------------------------------------------|
D(9~~~~~~~~~~~~~~~~~~~~~~~~~~~~~~~~~~~~~~~~~~~~~~~~~~~~~~~~~~~~~~~~~~~~~~~~~~~~~~~)
A|--------------------5----7h---5----7h-------------5----7h-------------2----3h---|
E|0----0----0----0------------------------0----0--------------0----0--------------|
  *    *    *    *                        *    *              *    *
e|--------------------------------------------------------------------------------|
B|--------------------------------------------------------------------------------|
G|--------------------------------------------------------------------------------|
D(~~~~~~~~~~~~~~~~~~~~~~~~~~~~~~~~~~~~~~~~~~~~~~~~~~~~~~~~~~~~~~~~~~~~~~~~~~~~~~~~)
A|------------------------------5----7h-------------2----3h-----------------------|
E|0----0----0----0----0----0--------------0----0--------------0----0----5----7h---|
  *    *    *    *    *    *              *    *              *    *
e|--------------------------------------------------------------------------------|
B|--------------------------------------------------------------------------------|
G|--------------------------------------------------------------------------------|
D(10~~~~~~~~~~~~~~~~~~~~~~~~~~~~~~~~~~~~~~~~~~~~~~~~~~~~~~~~~~~~~~~~~~~~~~~~~~~~~~)
A|--------------------5----7h---5----7h-------------5----7h-------------2----3h---|
E|0----0----0----0------------------------0----0--------------0----0--------------|
  *    *    *    *                        *    *              *    *
e|--------------------------------------------------------------------------------|
B|--------------------------------------------------------------------------------|
G|--------------------------------------------------------------------------------|
D(~~~~~~~~~~~~~~~~~~~~~~~~~~~~~~~~~~~~~~~~~~~~~~~~~~~~~~~~~~~~~~~~~~~~~~~~~~~~~~~~)
A|------------------------------5----7h-------------2----3h-----------------------|
E|0----0----0----0----0----0--------------0----0--------------0----0----5----7h---|
  *    *    *    *    *    *              *    *              *    *
e|--------------------------------------------------------------------------------|
B|--------------------------------------------------------------------------------|
G|--------------------------------------------------------------------------------|
D(12~~~~~~~~~~~~~~~~~~~~~~~~~~~~~~~~~~~~~~~~~~~~~~~~~~~~~~~~~~~~~~~~~~~~~~~~~~~~~~)
A|--------------------5----7h---5----7h-------------5----7h-------------2----3h---|
E|0----0----0----0------------------------0----0--------------0----0--------------|
  *    *    *    *                        *    *              *    *
e|--------------------------------------------------------------------------------|
B|--------------------------------------------------------------------------------|
G|--------------------------------------------------------------------------------|
D(~~~~~~~~~~~~~~~~~~~~~~~~~~~~~~~~~~~~~~~~~~~~~~~~~~~~~~~~~~~~~~~~~~~~~~~~~~~~~~~~)
A|------------------------------5----7h-------------2----3h-----------------------|
E|0----0----0----0----0----0--------------0----0--------------0----0----5----7h---|
  *    *    *    *    *    *              *    *              *    *
e|--------------------------------------------------------------------------------|
B|--------------------------------------------------------------------------------|
G|--------------------------------------------------------------------------------|
D(10~~~~~~~~~~~~~~~~~~~~~~~~~~~~~~~~~~~~~~~~~~~~~~~~~~~~~~~~~~~~~~~~~~~~~~~~~~~~~~)
A|--------------------5----7h---5----7h-------------5----7h-------------2----3h---|
E|0----0----0----0------------------------0----0--------------0----0--------------|
  *    *    *    *                        *    *              *    *
e|--------------------------------------------------------------------------------|
B|--------------------------------------------------------------------------------|
G|--------------------------------------------------------------------------------|
D(~~~~~~~~~~~~~~~~~~~~~~~~~~~~~~~~~~~~~~~~~~~~~~~~~~~~~~~~~~~~~~~~~~~~~~~~~~~~~~~~)
A|------------------------------5----7h-------------5~~~~~~~~~4~~~~~~~~~3~~~~~~~~~|
E|0----0----0----0----0----0--------------0----0----3~~~~~~~~~2~~~~~~~~~1~~~~~~~~~|
  *    *    *    *    *    *              *    *
Tap to rate this tab
# A B C D E F G H I J K L M N O P Q R S T U V W X Y Z