Song name
# A B C D E F G H I J K L M N O P Q R S T U V W X Y Z

Sonic Mayhem - March Of The Stroggs tab

-------------------------------------------------------------------------------
                     March of the Stroggs - Sonic Mayhem
-------------------------------------------------------------------------------

Tabbed by: Zaqq
E-mail: zaqqthe@gmail.com

Tuning: standard (EADGBE)

e|------------------------------------------------|
B|-------------------------------------triplet----|
G|--------------------------------------/---\-----|
D|-7/8\7-5---4/5\4-2------7/8\7-5---4/5-4-4-4-----|
A|-7/8\7-5---4/5\4-2--x3--7/8\7-5---4/5-4-4-4-----| x 3
E|-5/6\5-3---2/3\2-0------5/6\5-3---2/3-2-2-2-----|

e|-------------------------------------------------------------|
B|-------------------------------------------------------------|
G|---------------------------3---------------------------------|
D|-2-22-22-2-2---2-22-22-2-2-3---2-22-22-2-2---2-22-22-2-2-5---|
A|-2-22-22-2-2---2-22-22-2-2-1---2-22-22-2-2---2-22-22-2-2-5---| x 4
E|-0-00-00-0-0---0-00-00-0-0-----0-00-00-0-0---0-00-00-0-0-3---|

e|----------------------------------------------|
B|----------------------------------------------|
G|----------------------------------------------|
D|-11-10-8-5---11-10-5---11-10-8-5---11-10-8-5--|
A|-11-10-8-5---11-10-5---11-10-8-5---11-10-8-5--|
E|--9--8-6-3----9--8-3----9--8-6-3----9--8-6-3--|

e|----------------------------|
B|----------------------------|
G|----------------------------|
D|-8-7-5-2---8-7-2---8-7-5-2--|
A|-8-7-5-2---8-7-2---8-7-5-2--| x 12
E|-6-5-3-0---6-5-0---6-5-3-0--|

e|----------------------------------------------|
B|----------------------------------------------|
G|----------------------------------------------|
D|-11-10-8-5---11-10-5---11-10-8-5---11-10-8-5--|
A|-11-10-8-5---11-10-5---11-10-8-5---11-10-8-5--| x 4
E|--9--8-6-3----9--8-3----9--8-6-3----9--8-6-3--|

e|-------------------------------------------------------------|
B|-------------------------------------------------------------|
G|---------------------------3---------------------------------|
D|-2-22-22-2-2---2-22-22-2-2-3---2-22-22-2-2---2-22-22-2-2-5---|
A|-2-22-22-2-2---2-22-22-2-2-1---2-22-22-2-2---2-22-22-2-2-5---| x 4
E|-0-00-00-0-0---0-00-00-0-0-----0-00-00-0-0---0-00-00-0-0-3---|

e|-----------------------------------------|
B|-----------------------------------------|
G|-----------------------------------------|
D|-7/8\7-5---4/5\4-2---7/8\7-5---4/5\4-2---|
A|-7/8\7-5---4/5\4-2---7/8\7-5---4/5\4-2---|
E|-5/6\5-3---2/3\2-0---5/6\5-3---2/3\2-0---|

| /  slide up
| \  slide down
===============================================================================

Tap to rate this tab
 
# A B C D E F G H I J K L M N O P Q R S T U V W X Y Z