Song name
# A B C D E F G H I J K L M N O P Q R S T U V W X Y Z

Sonic Roots - Power Of Need tab

E----------------------------------------------|
H------0----------3---------3---------3--------|
G------0----------0---------0---------0--------| INTRO / STROPHE
D--------------2-------------------------------|
A----2--------3----------2----------0----------|
E--0-------------------3----------2------------|

--- First bridge only A. let it ring ---------

E------------------------------------------------------|
H------------------------------------------------------|
G------------------------------------------------------| BRIDGE 2.
D------------------------------------------------------|
A---7-7---X--7-(7)---9-9-(9)---12-12-12-12-12-12-12-12-|
E---5-5---X--5-(5)---7-7-(7)---10-10-10-10-10-10-10-10-|

E----------------------------------------------|
H----------------------------------------------|
G--------0--------0-------0--------------------| CHORUS
D------9-------7--------5----------------------|
A----7-------5--------3----------5----4--------|
E--------------------------------3----2--------|
Tap to rate this tab
 
# A B C D E F G H I J K L M N O P Q R S T U V W X Y Z