Song name
# A B C D E F G H I J K L M N O P Q R S T U V W X Y Z

Sonic Syndicate - Denied tab

In the intro & the chorus it's 10 and 11 NOT 1-0 and 1-1, okay? 

[intro - play twice]

E|--------|--------|--------|--------|----------------|----------------|
B|66666666|66668888|66666666|66668888|1010101010101010|1010101011111111|
G|77777777|77777777|77777777|77777777|1010101010101010|1010101010101010|
D|--------|--------|--------|--------|----------------|----------------|
A|--------|--------|--------|--------|----------------|----------------|
D|--------|--------|--------|--------|----------------|----------------|

E|--------|--------|
B|88888888|88885555|
G|99999999|99995555|  
D|--------|--------|
A|--------|--------|
D|--------|--------|

[verse]

E|----------------|----------------|----------------|----------------|
B|----------------|----------------|----------------|----------------|
G|1414141414141414|1414141414141414|1515151515151515|1515151515151515|
D|0 0 0 0 0 0 0 0 |0 0 0 0 0 0 0 0 |0 0 0 0 0 0 0 0 |0 0 0 0 0 0 0 0 |
A|----------------|----------------|----------------|----------------|
D|----------------|----------------|----------------|----------------|
[Why the f*ck did you lie then...]

E|----------------|----------------|----------------|----------------|
B|----------------|----------------|----------------|----------------|
G|1717171717171717|1717171717171717|1212121212121212|1212121212121212|
D|0 0 0 0 0 0 0 0 |0 0 0 0 0 0 0 0 |0 0 0 0 0 0 0 0 |0 0 0 0 0 0 0 0 |
A|----------------|----------------|----------------|----------------|
D|----------------|----------------|----------------|----------------|

[pre-chorus - play as often as you need]

E|--------|--------|--------|--------|
B|--------|--------|--------|--------|
G|--------|--------|--3-2---|2-3-2-32|
D|--3-2---|-3-2-320|00----00|--------|
A|11-----1|--------|--------|--------|
D|--------|--------|--------|--------|
[Hasn't been screaming all these years...]

[chorus - play twice]

E|--------|--------|--------|--------|----------------|----------------|
B|66666666|66668888|66666666|66668888|1010101010101010|1010101011111111|
G|77777777|77777777|77777777|77777777|1010101010101010|1010101010101010|
D|--------|--------|--------|--------|----------------|----------------|
A|--------|--------|--------|--------|----------------|----------------|
D|--------|--------|--------|--------|----------------|----------------|

E|--------|--------|
B|88888888|88885555|
G|99999999|99995555|  
D|--------|--------|
A|--------|--------|
D|--------|--------|


[verse]

E|----------------|----------------|----------------|----------------|
B|----------------|----------------|----------------|----------------|
G|1414141414141414|1414141414141414|1515151515151515|1515151515151515|
D|0 0 0 0 0 0 0 0 |0 0 0 0 0 0 0 0 |0 0 0 0 0 0 0 0 |0 0 0 0 0 0 0 0 |
A|----------------|----------------|----------------|----------------|
D|----------------|----------------|----------------|----------------|
[You broke my engagement...]

E|----------------|----------------|----------------|----------------|
B|----------------|----------------|----------------|----------------|
G|1717171717171717|1717171717171717|1212121212121212|1212121212121212|
D|0 0 0 0 0 0 0 0 |0 0 0 0 0 0 0 0 |0 0 0 0 0 0 0 0 |0 0 0 0 0 0 0 0 |
A|----------------|----------------|----------------|----------------|
D|----------------|----------------|----------------|----------------|

[solo]

E|--------|--------|--------|--------|--------|--------|--------|--------|
B|----1---|----1---|--------|--------|----1---|----131-|----1---|--------|
G|--33-323|--33-323|22222222|22220000|--33-323|--33---3|320--320|20---023|
D|--------|--------|--------|--------|--------|--------|---3----|--323---|
A|11------|11------|--------|--------|11------|11------|--------|--------|
D|--------|--------|--------|--------|--------|--------|--------|--------|

E|--------|--------|--------|--------|--------|--------|--------|--------|
B|----1---|----1---|----1---|--------|----1---|----131-|----1---|--------|
G|--33-323|--33-323|320--320|20------|--33-323|--33---3|320--320|20---023|
D|--------|--------|---3----|--32320-|--------|--------|---3----|--323---|
A|11------|11------|--------|-------3|11------|11------|--------|--------|
D|--------|--------|--------|--------|--------|--------|--------|--------|

Now just put it together just as you need it - listen to the song. 
Tap to rate this tab
 
# A B C D E F G H I J K L M N O P Q R S T U V W X Y Z