Song name
# A B C D E F G H I J K L M N O P Q R S T U V W X Y Z

Sonic Syndicate - Soulstone Splinter tab

Sonic Syndicate - Soulstone splinter
Tuning: Drop D

  This is my first tab, and its pretty much all there (except for a little part 
from the solo) and pretty accurate.  And as far as I know it's the only tab for 
this song that's NOT for gay GuitarPro so enjoy it.

Key:

. = palm mute
~ = let ring
b = bend
br = bend and release
/ = slide

| INTRO | For some reason the A string for the intro is shifted way to the right 
but it looks normal in tab editing so i cant fix it >.>

e|--------------------------------------------------|
B|--------------------------------------------------|
G|--------------------------------------------------|
D|--0~---------0--0--0-0-------3~------5~-----2~----|
A|--0~---------0--0--0-0-------3~------5~-----2~----|
E|--0~---------0--0--0-0-------3~------5~-----2~----|

e|----------------------------------|---------------------|
B|----------------------------------|---------------------|
G|----------------------------------|---------------------|
D|--------------------------------x2|--3~------5~-----2~--|                                     
A|--0-----0-----0~--0~--------------|--3~------5~-----2~--|
E|--0-0-0-0-0-0-0~--0~--0-000-000---|--3~------5~-----2~--|       
      . .   . .         . ... ...
e|----------------------------------|---------------------|
B|----------------------------------|---------------------|
G|----------------------------------|---------------------|
D|--------------------------------x2|--3~------5~-----2~--|                                     
A|--0-----0-----0~--0~--------------|--3~------5~-----2~--|
E|--0-0-0-0-0-0-0~--0~--0-000-000---|--3~------5~-----2~--|                                 
      . .   . .         . ... ...



| BRIDGE(?) | I'm not really sure what to call it because I call the 
riff                                     after the solo the bridge.

  Guitar 1:                                   First Time:
e|----------------------------------------|-----------------------|
B|----------------------------------------|-----------------------|
G|----------0h2-0--0h2-3-2-0--------2-0h2-|-----2------0-----3h5--|
D|-----0---------------------3------------|-----------------------|
A|-0-0-0----------------------------------|-----------------------|
E|-0-0-0------------------------0-0-------|-0-0----0-0---0-0------|
   . .                          . .         . .    . .   . .

   Second Time:
e|------------------|
B|------------------|
G|------2p0---------|
D|----------3-5-3-2-|
A|------------------|
E|-0-0--------------|
   . .

  Guitar 2:                        First:
e|-----------------------------|-------------------------------|
B|-----------------------------|-------------------------------|
G|-----------------------------|-------------------------------|
D|-----0-----------------------|-------------------------------|
A|-0-0-0---5h8-7-7h8-10-8-7----|-----8-7h8-----8-----7-----5h7-|
E|-0-0-0--------------------10-|-8-8-------8-8---8-8---8-8-----|
   . .                           . .       . .   . .   . .

   Second:
e|---------------------------|
B|---------------------------|
G|---------------------------|
D|---------------------------|
A|-----8-7h8-----8-7-5/7-3/5-|
E|-8-8-------8-8-------------|


| VERSE |

e|-------------------------------------------------------|
B|-------------------------------------------------------|
G|-------------------------------------------------------|
D|-------------------------------------------------------|
A|-000-000-000---000-000-000---333-333-333---222-222-222-|
E|-000-000-000---000-000-000---333-333-333---222-222-222-|
   ... ... ...   ... ... ...   ... ... ...   ... ... ...

  I raise my fist, to the sky...
e|---------------------------------------------------------------------|
B|---------------------------------------------------------------------|
G|---------------------------------------------------------------------|
D|---------------------------------------------------------------------|
A|---------------------------------------------------------------------|
E|-000-000-000-000-000-000-000-000-333-333-333-333-333-222-222-222-222-|
   ... ... ... ... ... ... ... ... ... ... ... ... ... ... ... ... ...


| Pre-Chorus |

              Father is she with you...
e|---------------------------------------------|
B|---------------------------------------------|
G|---------------------------------------------|
D|-3~----5~----0-------------------------------|
A|-3~----5~----0---------------0---------------|
E|-3~----5~----0-0-0-0-000-000-0-0-0-0-000-000-|
                 . . . ... ... . . . . ... ...

e|-----------------------------|
B|-----------------------------|
G|-----------------------------|
D|-3~-----5~-----2~-----2--2-2-|
A|-3~-----5~-----2~-----2--2-2-|
E|-3~-----5~-----2~-----2--2-2-|

| Chorus |
(The lead is there but no rhythm)

e|---------------------------------------------------------------|
B|--------------------------8------------------------------------|
G|--10p9p7----7-10-9-7h9-10-----/10-9-10p9p7--------7h9h10h9p7h9-|
D|---------10--------------------------------10--10--------------|
A|---------------------------------------------------------------|
E|---------------------------------------------------------------|

e|-----------------------------10-8-10p8-------------------------|
B|--------------------------8------------11-10-10-11p10-8-10-----|
G|--10p9p7----7-10-9-7h9-10--------------------------------------|
D|---------10----------------------------------------------------|x2
A|---------------------------------------------------------------|
E|---------------------------------------------------------------|



| BRIDGE(?) |

  Guitar 1:                                   First Time:
e|----------------------------------------|-----------------------|
B|----------------------------------------|-----------------------|
G|----------0h2-0--0h2-3-2-0--------2-0h2-|-----2------0-----3h5--|
D|-----0---------------------3------------|-----------------------|
A|-0-0-0----------------------------------|-----------------------|
E|-0-0-0------------------------0-0-------|-0-0----0-0---0-0------|
   . .                          . .         . .    . .   . .

   Second Time:
e|------------------|
B|------------------|
G|------2p0---------|
D|----------3-5-3-2-|
A|------------------|
E|-0-0--------------|
   . .

  Guitar 2:                        First:
e|-----------------------------|-------------------------------|
B|-----------------------------|-------------------------------|
G|-----------------------------|-------------------------------|
D|-----0-----------------------|-------------------------------|
A|-0-0-0---5h8-7-7h8-10-8-7----|-----8-7h8-----8-----7-----5h7-|
E|-0-0-0--------------------10-|-8-8-------8-8---8-8---8-8-----|
   . .                           . .       . .   . .   . .

   Second:
e|---------------------------|
B|---------------------------|
G|---------------------------|
D|---------------------------|
A|-----8-7h8-----8-7-5/7-3/5-|
E|-8-8-------8-8-------------|


| VERSE |

e|-------------------------------------------------------|
B|-------------------------------------------------------|
G|-------------------------------------------------------|
D|-------------------------------------------------------|
A|-000-000-000---000-000-000---333-333-333---222-222-222-|
E|-000-000-000---000-000-000---333-333-333---222-222-222-|
   ... ... ...   ... ... ...   ... ... ...   ... ... ...

  I raise my fist, to the sky...
e|---------------------------------------------------------------------|
B|---------------------------------------------------------------------|
G|---------------------------------------------------------------------|
D|---------------------------------------------------------------------|
A|---------------------------------------------------------------------|
E|-000-000-000-000-000-000-000-000-333-333-333-333-333-222-222-222-222-|
   ... ... ... ... ... ... ... ... ... ... ... ... ... ... ... ... ...


| Pre-Chorus |

              Father is she with you...
e|---------------------------------------------|
B|---------------------------------------------|
G|---------------------------------------------|
D|-3~----5~----0-------------------------------|
A|-3~----5~----0---------------0---------------|
E|-3~----5~----0-0-0-0-000-000-0-0-0-0-000-000-|
                 . . . ... ... . . . . ... ...

e|-----------------------------|
B|-----------------------------|
G|-----------------------------|
D|-3~-----5~-----2~-----2--2-2-|
A|-3~-----5~-----2~-----2--2-2-|
E|-3~-----5~-----2~-----2--2-2-|

| Chorus |


e|---------------------------------------------------------------|
B|--------------------------8------------------------------------|
G|--10p9p7----7-10-9-7h9-10-----/10-9-10p9p7--------7h9h10h9p7h9-|
D|---------10--------------------------------10--10--------------|
A|---------------------------------------------------------------|
E|---------------------------------------------------------------|

e|-----------------------------10-8-10p8-------------------------|
B|--------------------------8------------11-10-10-11p10-8-10-----|
G|--10p9p7----7-10-9-7h9-10--------------------------------------|
D|---------10----------------------------------------------------|x2
A|---------------------------------------------------------------|
E|---------------------------------------------------------------|



| SOLO |
(It's all there except for a bit towards the end please submit idea :/)

e|----------------------------------------------------|
B|----------------------------------------------------|
G|----------------------------------------------------|
D|-/7-10-------/7-10----------/7-10-------------------|
A|-------10-8--------10-8-5h8-------10-8-5h8-5---3tr5-|
E|----------------------------------------------------|

e|------------------------------------------------------------------|
B|---------------10-10--10--10-10---------------10-10--10--10-10-10-|
G|-/7-7--7--7-7---------10--10-10--10-10-7-7-10-10-10--10--10-10-10-|
D|---------------------------------10-10-7-7-10---------------------|
A|------------------------------------------------------------------|
E|------------------------------------------------------------------|

e|-----------------------------------------------------------------|
B|-/15-15-15p13----13b-13b-13br----13b-13b-13br----13b-13b-13br----|
G|--------------14--------------14--------------14--------------14-|
D|-----------------------------------------------------------------|
A|-----------------------------------------------------------------|
E|-----------------------------------------------------------------|

e|------------------------------------------------------------------|
B|-18p16-----------------------????????????????????????????????????-|
G|-------17-17p15p13-15p13-----?sorry but i cant get that last bit?-|
D|-------------------------15--????????????????????????????????????-|
A|------------------------------------------------------------------|
E|------------------------------------------------------------------|

e|------------------------8---11~-|
B|---------8-9bp8----10-----------|
G|-/7~--10--------10--------------|
D|--------------------------------|
A|--------------------------------|
E|--------------------------------|

e|--------------------------| 
B|--------------------------|
G|--------------------------|
D|-12~---10~---8~---2--3--5-|
A|-12~---10~---8~---2--3--5-|
E|-12~---10~---8~---2--3--5-|

The rhythm for the whole solo is just this:
e|------------------------|
B|------------------------|
G|------------------------|
D|-12~---10~---8~---10~---|
A|-12~---10~---8~---10~---|
E|-12~---10~---8~---10~---|



| BRIDGE |

e|----------------------------------------------------------------|
B|----------------------------------------------------------------|
G|----------------------------------------------------------------|
D|--------------------------------------------------5-----3-------|
A|-0-------0-------6-----5-----3h5--0-------0-------3-----1-----7-|
E|-0-0-0-0-0-0-0-0-6-0-0-5-0-0-3h5--0-0-0-0-0-0-0-0---0-0---0-0-7-|
     . . .   . . .   . .   . .        . . .   . . .   . .   . .
e|----------------------------------------------------------------|
B|----------------------------------------------------------------|
G|----------------------------------------------------------------|
D|----------------------------------------------------------------|
A|-0-------0-------6-----5-----3h5--3-------3-------2-----3-----2-|
E|-0-0-0-0-0-0-0-0-6-0-0-5-0-0-3h5--3-3-3-3-3-3-3-3-2-2-2-3-3-3-2-|
     . . .   . . .   . .   . .        . . .   . . .   . .   . .
____________________________________________________________________________
e|----------------------------------------------------------------|
B|----------------------------------------------------------------|
G|----------------------------------------------------------------|
D|--------------------------------------------------5-----3-------|
A|-000-----000-----6-----5-----3h5--000-----000-----3-----1-----7-|
E|-000-0-0-000-0-0-6-0-0-5-0-0-3h5--000-0-0-000-0-0---0-0---0-0-7-|
       . .     . .   . .   . .          . .     . .   . .   . .
e|----------------------------------------------------------------|
B|----------------------------------------------------------------|
G|----------------------------------------------------------------|
D|----------------------------------------------------------------|
A|-000-----000-----6-----5-----3h5--333-----333-----2-----3-----2-|
E|-000-0-0-000-0-0-6-0-0-5-0-0-3h5--333-3-3-333-3-3-2-2-2-3-3-3-2-|
       . .     . .   . .   . .          . .     . .   . .   . .      

| Pre-Chorus |

              Father is she with you...
e|---------------------------------------------|
B|---------------------------------------------|
G|---------------------------------------------|
D|-3~----5~----0-------------------------------|
A|-3~----5~----0---------------0---------------|
E|-3~----5~----0-0-0-0-000-000-0-0-0-0-000-000-|
                 . . . ... ... . . . . ... ...

e|-----------------------------|
B|-----------------------------|
G|-----------------------------|
D|-3~-----5~-----2~-----2--2-2-|
A|-3~-----5~-----2~-----2--2-2-|
E|-3~-----5~-----2~-----2--2-2-|

| Chorus |


e|---------------------------------------------------------------|
B|--------------------------8------------------------------------|
G|--10p9p7----7-10-9-7h9-10-----/10-9-10p9p7--------7h9h10h9p7h9-|
D|---------10--------------------------------10--10--------------|
A|---------------------------------------------------------------|
E|---------------------------------------------------------------|

e|-----------------------------10-8-10p8-------------------------|
B|--------------------------8------------11-10-10-11p10-8-10-----|
G|--10p9p7----7-10-9-7h9-10--------------------------------------|
D|---------10----------------------------------------------------|x4
A|---------------------------------------------------------------|
E|---------------------------------------------------------------|

e|------------------------|
B|------------------------|
G|-10p9p7----7-10-9~---9\-|
D|--------10--------------|
A|------------------------|
E|------------------------|
Tap to rate this tab
 
# A B C D E F G H I J K L M N O P Q R S T U V W X Y Z