Sonic Syndicate - Misanthropic Coil tab

Sonic Syndicate - Misanthropic Coil

  So this is my second tab i've made, if you like it check out my soulstone splinter tab too :)

key:
.=palm mute
~=let ring
h=hammer on
p=pull off
/=slide

| Intro |
(played over the keyboard part)

e|--------------------|
B|--------------------|
G|--------------------|
D|----------0~--------|
A|-0-0------0~--------|
D|-0-0------0~--------|
   . .
e|------------------------------|---------------------------|
B|------------------------------|---------------------------|
G|------------------------------|---------------------------|
D|------------------------------|---------------------------|
A|-0----0----0---3----5---5-5-5-|-0----0----0---5--8--7-3h5-|
D|-0-00-0-00-0-0-3-33-5---5-5-5-|-0-00-0-00-0-0-5--8--7-3h5-|
     ..   ..   .   ..               ..   ..   .

e|------------------------------|--------------------------------=----------|
B|------------------------------|-------------------------------------------|
G|------------------------------|-------------------------------------------|
D|------------------------------|-----------------------------------------7-|
A|-0----0----0---3----5---5-5-5-|-10----------10----------12-------13-9h10--|
D|-0-00-0-00-0-0-3-33-5---5-5-5-|-10-10-10-10-10-10-10-10-12-12-12-13-------|
     ..   ..   .   ..                 .  .  .     .  .  .     .  .      

| Intro II |

e|------------------------------------------------------------|
B|------------------------------------------------------------|
G|------------------------------------------------------------|
D|------------------------------------------3-2--3/5-5--3-2---| x2
A|-5-5-5--8--7--3/5--5-5--8--7--3--1-1-1--------------------3-|
D|------------------------------------------------------------|
     . .             . .           . . .

e|-------------------------------------------------------------|
B|----------------------------------------6--5--6/8--8-6--5----|
G|-7-7-7--10--9--5/7-7-7--10--9--5--3-3-3--------------------5-|
D|-------------------------------------------------------------| x2
A|-------------------------------------------------------------|
D|-------------------------------------------------------------|
     . .             . .              . .

e|----------------|
B|----------------|
G|----------------|
D|-0~-------------|
A|-0~-----0-0-3-2-|
D|-0~-----0-0-3-2-|
          . .
| Verse |
(the first time i play just the open D for the first part but i always play D and 
A for the second part)
            1                               2
e|----------------------------|----------------------------|
B|----------------------------|----------------------------|
G|----------------------------|----------------------------|
D|----------------------------|----------------------------|  x4
A|-0-0-0---0-0-0---000--0-0-0-|-2-2-2---2-2-2---222--2-3-5-|
D|-0-0-0---0-0-0---000--0-0-0-|-2-2-2---2-2-2---222--2-3-5-|
   . . .   . . .   ...  . . .   . . .   . . .   ...  . . .

| Pre-Chorus |

e|-------------------------------------------------------|
B|-------------------------------------------------------|
G|-------------------------------------------------------|
D|-------------------------------------------------------|
A|-0-----0-----3-2~-----0-----0-----3--5-----------------|
D|-0-000-0-000-3-2~-----0-000-0-000-3--5-5-555-555-555-5-|
     ...   ...            ...   ...      . ... ... ... .
e|--------------------------------------------|
B|--------------------------------------------|
G|--------------------------------------------|
D|--------------------------------------------|
A|-0-----0-----3-2~-----0-----0-----3--5--8-7-|
D|-0-000-0-000-3-2~-----0-000-0-000-3--5--8-7-|
     ...   ...            ...   ...

| Chorus |
(same as intro riff)

e|------------------------------|---------------------------|
B|------------------------------|---------------------------|
G|------------------------------|---------------------------|
D|------------------------------|---------------------------|
A|-0----0----0---3----5---5-5-5-|-0----0----0---5--8--7-3h5-|
D|-0-00-0-00-0-0-3-33-5---5-5-5-|-0-00-0-00-0-0-5--8--7-3h5-|
     ..   ..   .   ..               ..   ..   .

e|------------------------------|--------------------------------=----------|
B|------------------------------|-------------------------------------------|
G|------------------------------|-------------------------------------------|
D|------------------------------|-----------------------------------------7-|
A|-0----0----0---3----5---5-5-5-|-10----------10----------12-------13-9h10--|
D|-0-00-0-00-0-0-3-33-5---5-5-5-|-10-10-10-10-10-10-10-10-12-12-12-13-------|
     ..   ..   .   ..                 .  .  .     .  .  .     .  .      

| Post-Chorus |
(also same as intro riff 2 :)

e|------------------------------------------------------------|
B|------------------------------------------------------------|
G|------------------------------------------------------------|
D|------------------------------------------3-2--3/5-5--3-2---| x2
A|-5-5-5--8--7--3/5--5-5--8--7--3--1-1-1--------------------3-|
D|------------------------------------------------------------|
     . .             . .           . . .

e|-------------------------------------------------------------|
B|----------------------------------------6--5--6/8--8-6--5----|
G|-7-7-7--10--9--5/7-7-7--10--9--5--3-3-3--------------------5-|
D|-------------------------------------------------------------| x2
A|-------------------------------------------------------------|
D|-------------------------------------------------------------|
     . .             . .              . .

| Verse |

e|----------------------------|----------------------------|
B|----------------------------|----------------------------|
G|----------------------------|----------------------------|
D|----------------------------|----------------------------|  x4
A|-0-0-0---0-0-0---000--0-0-0-|-2-2-2---2-2-2---222--2-3-5-|
D|-0-0-0---0-0-0---000--0-0-0-|-2-2-2---2-2-2---222--2-3-5-|
   . . .   . . .   ...  . . .   . . .   . . .   ...  . . .

| Bridge |
                                 < x2 >
e|--------------------------------------------------------------------------|
B|--------------------------------------------------------------------------|
G|10-----9-----7---14-----15----14----12-----14-----12----10-9h10-12p10p9---|
D|---0-0---0-0---0----0-0----0-0---0-----0-0----0-0----0------------------10|
A|--------------------------------------------------------------------------|
D|--------------------------------------------------------------------------|

                                 < x2 >
e|-----------------------------------------------------------------------|
B|-----------------------------------------------------------------------|
G|-----------------------------------------------------------------------|
D|------------------------------------------------------------0~---------|
A|-8-----7-----5---12-----13-----12---10-----12-----10---8-7--0~---------|
D|---0-0---0-0---0----0-0----0-0----0----0-0----0-0----0------0~---------|

e|----------------|
B|----------------|
G|----------------|
D|-0--0~----------|
A|-0--0~----------|
D|-0--0~----------|

| Breakdown that's not reall a breakdown but w/e |

e|--------------------------------------|
B|--------------------------------------|
G|--------------------------------------|
D|--------------------------------------|
A|--------------------------------------|
D|-0000--0000--0000----0000---0~---0000-|

e|----------------------------------------------|  |-----------------------|
B|----------------------------------------------|  |-----------------------|
G|----------------------------------------------|  |-----------------------|
D|----------------------------------------------|x2|-0~--------------------|
A|----------------------------------------------|  |-0~--------------------|
D|-0000--0000--0000----0000---0~---0000--000000-|  |-0~--------------------|


| Chorus |

e|------------------------------|---------------------------|
B|------------------------------|---------------------------|
G|------------------------------|---------------------------|
D|------------------------------|---------------------------|
A|-0----0----0---3----5---5-5-5-|-0----0----0---5--8--7-3h5-|
D|-0-00-0-00-0-0-3-33-5---5-5-5-|-0-00-0-00-0-0-5--8--7-3h5-|
     ..   ..   .   ..               ..   ..   .

e|------------------------------|--------------------------------=----------|
B|------------------------------|-------------------------------------------|
G|------------------------------|-------------------------------------------|
D|------------------------------|-----------------------------------------7-|
A|-0----0----0---3----5---5-5-5-|-10----------10----------12-------13-9h10--|
D|-0-00-0-00-0-0-3-33-5---5-5-5-|-10-10-10-10-10-10-10-10-12-12-12-13-------|
     ..   ..   .   ..                 .  .  .     .  .  .     .  .      

| Post-Chorus |

e|------------------------------------------------------------|
B|------------------------------------------------------------|
G|------------------------------------------------------------|
D|------------------------------------------3-2--3/5-5--3-2---| x2
A|-5-5-5--8--7--3/5--5-5--8--7--3--1-1-1--------------------3-|
D|------------------------------------------------------------|
     . .             . .           . . .

e|-------------------------------------------------------------|
B|----------------------------------------6--5--6/8--8-6--5----|
G|-7-7-7--10--9--5/7-7-7--10--9--5--3-3-3--------------------5-|
D|-------------------------------------------------------------| x2
A|-------------------------------------------------------------|
D|-------------------------------------------------------------|
     . .             . .              . .

e|-------------------------------|
B|-------------------------------|
G|-------------------------------|
D|-----------------------------0-|
A|-0-0-0---0-0-0-8--7-5h7--0-0-0-|
D|-0-0-0---0-0-0-8--7-5h7--0-0-0-|
   . . .   . . .           . .

Thanks for lookin at my tab
rate 5 stars :)
Tap to rate this tab
 
# A B C D E F G H I J K L M N O P Q R S T U V W X Y Z