Sonic Syndicate - Psychic Suicide tab

NOTE:  This is the preproduction version, the main difference between this one and the
version is the pre-chorus.

Hello, thanks for clicking another one of my SS tabs

If you like this one, please check out my others.
(Please rate!)

//| INTRO |\\

D|---------|-----------------------------------------|
A|---------|-----------------------------------------|
F|---------|-----------------------------------------|
C|-X-X-X-X-|-15-0-12-0-10-0-12/15--0-12-0-10-0-10h12-|
G|-X-X-X-X-|-----------------------------------------|
C|-X-X-X-X-|-----------------------------------------|

D|------------------------------------------|
A|------------------------------------------|
F|------------------------------------------|
C|-15-0-12-0-10-0-15/17--0-17-0-15h17-15p14-|  X2
G|------------------------------------------|
C|------------------------------------------|

-----------------------------------------------------------------------------

//| VERSE |\\

D|-------------------------------|------------------------------|
A|-------------------------------|------------------------------|
F|-------------------------------|------------------------------|
C|-----------0~------------0~----|-----------5~------------5~---| X4
G|-000---000-0~----0-0-0-0-0~----|-333---333-5~----5-5-5-5-5~---|
C|-000---000-0~----0-0-0-0-0~----|-333---333-5~----5-5-5-5-5~---|
   ...   ...       . . . .         ...   ...       . . . .

-----------------------------------------------------------------------------

//| PRE-CHORUS|\\

D|----------------------------------|-------------------------------|
A|----------------------------------|-------------------------------|
F|----------------------------------|-------------------------------|
C|-----10--8p7------8-----7---------|-----5-5h7-----8---7---5--5\3--|
G|--------------------------8h10h12-|-------------------------------|
C|-8-8----------8-8---8-8-----------|-0-0-------0-0---0---0---------|
   . .          . .   . .             . .       . .   .   .
D|-------------------------------------|-----------------------------------|
A|-------------------------------------|----{[ FILL 1 ]}-------------------|
F|-------------------------------5h7h9-|-----------------------------------|
C|-----10--8h10-----10-----8-----------|---------7p5-----8p7-----7h8p7p5---|
G|-------------------------------------|-----------------------------------|
C|-8-8----------8-8----8-8-------------|-0-0-0-0-----0-0-----0-0-----------|
   . .          . .    . .               . . . .     . .     . .


D|---------------------------------|
A|----{[ FILL 2 ]}-----------------|
F|---------------------------------|
C|---------7p5-----7p5h7h8p7p5-5\3-|
G|---------------------------------|
C|-0-0-0-0-----0-0-----------------|
   . . . .     . .
-----------------------------------------------------------------------------

//| CHORUS |\\

D|-----------------|-------------------------|-------------------------|
A|-----------------|-------------------------|-------------------------|
F|-----------------|-------------------------|-------------------------|
C|-8-8-8-8-8-8-8-8-|-10-10-10-10-10-10-10-10-|-12-12-12-12-12-12-12-12-|
G|-8-8-8-8-8-8-8-8-|-10-10-10-10-10-10-10-10-|-12-12-12-12-12-12-12-12-|
C|-8-8-8-8-8-8-8-8-|-10-10-10-10-10-10-10-10-|-12-12-12-12-12-12-12-12-|

D|-------------------------|
A|-------------------------|
F|-------------------------|
C|-10-10-10-10-10-10-10-10-| X4
G|-10-10-10-10-10-10-10-10-|
C|-10-10-10-10-10-10-10-10-|

 That's the rhythm guitar for the chorus, it also sounds like some octave chords are
played during the chorus but I can only make out a few at the end, so when I play this song
do the chorus like this (so it's not as boring as hitting 3 different power chords 8 times)

D|-----------------|-------------------------|-------------------------|
A|-----------------|-------------------------|-------------------------|
F|-----------------|-------------------------|-------------------------|
C|-8-8-8-8-8-8-8-8-|-10-10-10-10-10-10-10-10-|-12-12-12-12-12-12-12-12-|
G|-8-8-8-8-8-8-8-8-|-10-10-10-10-10-10-10-10-|-12-12-12-12-12-12-12-12-|
C|-8-8-8-8-8-8-8-8-|-10-10-10-10-10-10-10-10-|-12-12-12-12-12-12-12-12-|

D|-------------------------|-----------------|---------------------------------------------------|
A|-------------------------|-----------------|---------------------------------------------------|
F|-------------------------|-----------------|-7-7-7-7-7-7-7-7-1010101010101010-5-5-5-5-5-5-5-5--|
G|-10-10-10-10-10-10-10-10-|-8-8-8-8-8-8-8-8-|-5-5-5-5-5-5-5-5-8-8-8-8-8-8-8-8--3-3-3-3-3-3-3-3--|
C|-10-10-10-10-10-10-10-10-|-8-8-8-8-8-8-8-8-|---------------------------------------------------|
-------------------------------------------------------------------------------------------------|

//| INTRO |\\

D|-----------------------------------------|
A|-----------------------------------------|
F|-----------------------------------------|
C|-15-0-12-0-10-0-12/15--0-12-0-10-0-10h12-|
G|-----------------------------------------|
C|-----------------------------------------|

D|------------------------------------------|
A|------------------------------------------|
F|------------------------------------------|
C|-15-0-12-0-10-0-15/17--0-17-0-15h17-15p14-|  X2
G|------------------------------------------|
C|------------------------------------------|

-----------------------------------------------------------------------------

//| Verse 2a |\\

D|------------------------------------|--------------------------------------|
A|------------------------------------|--------------------------------------|
F|-10p7-7-7-7-7-7-10p7-7-7-7-5-5-10p5-|-10p7-7-7-7-7-7-10p7-7-9-9-10h12p10p9-|
C|------------------------------------|--------------------------------------|
G|------------------------------------|--------------------------------------|
C|------------------------------------|--------------------------------------|

D|----------------------------------------------------------------------|
A|----------------------------------------------------------------------|
F|-10p7-7-7-7-7-7-10p7-7-7-7-5-5-10p5--10p7-7-7-7-7-7-10p7-7-7-7-9-9-10-|
C|----------------------------------------------------------------------|
G|----------------------------------------------------------------------|
C|----------------------------------------------------------------------|

//| Verse 2b |\\

D|-------------------------------------------------------|
A|-------------------------------------------------------|
F|-----10-10-----10-10-----10------7-7------9--9------10-|
C|-----12-12-----12-12-----12------8-8------10-10-----12-| X4
G|-------------------------------------------------------|
C|-0-0-------0-0-------0-0-----0-0------0-0-------0-0----|

-----------------------------------------------------------------------------

//| CHORUS |\\ (Or play it the way I do :D)

D|-----------------|-------------------------|-------------------------|
A|-----------------|-------------------------|-------------------------|
F|-----------------|-------------------------|-------------------------|
C|-8-8-8-8-8-8-8-8-|-10-10-10-10-10-10-10-10-|-12-12-12-12-12-12-12-12-|
G|-8-8-8-8-8-8-8-8-|-10-10-10-10-10-10-10-10-|-12-12-12-12-12-12-12-12-|
C|-8-8-8-8-8-8-8-8-|-10-10-10-10-10-10-10-10-|-12-12-12-12-12-12-12-12-|

D|-------------------------|
A|-------------------------|
F|-------------------------|
C|-10-10-10-10-10-10-10-10-| X4
G|-10-10-10-10-10-10-10-10-|
C|-10-10-10-10-10-10-10-10-|

-----------------------------------------------------------------------------

//| Bridge/Middle part/idk |\\

                    Well I don't care anymore...         So why don't f*** yourseeeelf
D|-------------------|-------------------------------------------------------------------|
A|-------------------|-------------------------------------------------------------------|
F|-------------------|-------------------------------------------------------------------|
C|-7~----10~---12~---|--7-7-7---7-7-7---7-7-7~----7-7-7---101010-101010-12-12-12-12-12\--|
G|-5~----8~----10~---|--5-5-5---5-5-5---5-5-5~----5-5-5---8-8-8--8-8-8--10-10-10-10-10\--|
C|-------------------|-------------------------------------------------------------------|

   ~This section below is played twice~
D|--------------------------------------------------------------------------|
A|--------------------------------------------------------------------------|
F|-9-x-7-x-5-x-7/9-9-9-9-9-9-9-9-9-1010101010101010-12-12-12-12-12-12-12-12-|
C|---x---x---x--------------------------------------------------------------|
G|-7-x-5-x-3-x-5/7-7-7-7-7-7-7-7-7-8-8-8-8-8-8-8-8--10-10-10-10-10-10-10-10-|
C|--------------------------------------------------------------------------|

D|------------------------------------------------------------------|
A|------------------------------------------------------------------|
F|-9-x-7-x-5-x-7/9-9-9-9-9-9-9-9-9-12-12-12-12-10-9-5-5-5-5-5-5-5-5-|
C|---x---x---x------------------------------------------------------|
G|-7-x-5-x-3-x-5/7-7-7-7-7-7-7-7-7-10-10-10-10-8--7-3-3-3-3-3-3-3-3-|
C|------------------------------------------------------------------|

-----------------------------------------------------------------------------

//| PRE-CHORUS|\\

D|----------------------------------|-------------------------------|
A|----------------------------------|-------------------------------|
F|----------------------------------|-------------------------------|
C|-----10--8p7------8-----7---------|-----5-5h7-----8---7---5--5\3--|
G|--------------------------8h10h12-|-------------------------------|
C|-8-8----------8-8---8-8-----------|-0-0-------0-0---0---0---------|
   . .          . .   . .             . .       . .   .   .
D|-------------------------------------|-----------------------------------|
A|-------------------------------------|----{[ FILL 1 ]}-------------------|
F|-------------------------------5h7h9-|-----------------------------------|
C|-----10--8h10-----10-----8-----------|---------7p5-----8p7-----7h8p7p5---|
G|-------------------------------------|-----------------------------------|
C|-8-8----------8-8----8-8-------------|-0-0-0-0-----0-0-----0-0-----------|
   . .          . .    . .               . . . .     . .     . .


D|---------------------------------|
A|----{[ FILL 2 ]}-----------------|
F|---------------------------------|
C|---------7p5-----7p5h7h8p7p5-5\3-|
G|---------------------------------|
C|-0-0-0-0-----0-0-----------------|
   . . . .     . .
-----------------------------------------------------------------------------

//| CHORUS |\\

D|-----------------|-------------------------|-------------------------|
A|-----------------|-------------------------|-------------------------|
F|-----------------|-------------------------|-------------------------|
C|-8-8-8-8-8-8-8-8-|-10-10-10-10-10-10-10-10-|-12-12-12-12-12-12-12-12-|
G|-8-8-8-8-8-8-8-8-|-10-10-10-10-10-10-10-10-|-12-12-12-12-12-12-12-12-|
C|-8-8-8-8-8-8-8-8-|-10-10-10-10-10-10-10-10-|-12-12-12-12-12-12-12-12-|

D|-------------------------|
A|-------------------------|
F|-------------------------|
C|-10-10-10-10-10-10-10-10-| X4
G|-10-10-10-10-10-10-10-10-|
C|-10-10-10-10-10-10-10-10-|

-----------------------------------------------------------------------------

//| INTRO |\\

D|-----------------------------------------|
A|-----------------------------------------|
F|-----------------------------------------|
C|-15-0-12-0-10-0-12/15--0-12-0-10-0-10h12-|
G|-----------------------------------------|
C|-----------------------------------------|

D|------------------------------------------|
A|------------------------------------------|
F|------------------------------------------|
C|-15-0-12-0-10-0-15/17--0-17-0-15h17-15p14-|  X2
G|------------------------------------------|
C|------------------------------------------|

-----------------------------------------------------------------------------

D|------------------|
A|------------------|
F|------------------|
C|----------------0-|
G|-0-0-0-0---0-00-0-|
C|-0-0-0-0---0-00-0-|

Thanks, rate 5 stars! :D
Tap to rate this tab
 
# A B C D E F G H I J K L M N O P Q R S T U V W X Y Z