Song name
# A B C D E F G H I J K L M N O P Q R S T U V W X Y Z

Sonic Syndicate - My Own Life tab

Hola.. este es mi primer intento de tablatura xD ... espero q les guste lo poco 
que hice con mi oido

E|-------------------|--------------------|
B|-------------------|--------------------|
G|----------6-----6--|--------3---4---3---|
D|------4-----4-----4|----4-----4---4---4-|
A|----2---2-----2----|--6---6-------------|
E|-------------------|--------------------|

E|------------------|---------------------|
B|------------------|---------------------|
G|---------6-----6--|--------3--------3---|
D|-----4-----4-----4|----4-----4---4----4-|
A|---2---2-----2----|--6---6-----4---4----|
E|------------------|---------------------|
Tap to rate this tab
 
# A B C D E F G H I J K L M N O P Q R S T U V W X Y Z