Song name
# A B C D E F G H I J K L M N O P Q R S T U V W X Y Z

Sonic Youth - Reena tab

-------------------------------------------------------------------------------
			     Reena - Sonic Youth
-------------------------------------------------------------------------------
Tabbed by:Johan Carĝe
Email:soyasoyzz@hotmail.com

Tuning:normal

This is a reena tab, in standard tuning, sonic youth plays it in an alternate tuning. 

Intro and chorus x2
        D              C           Gm             F

e|-------------------------------------------------------------------------|
B|-------------------------------------------------------------------------|
G|-------------------------------------------------------------------------|
D|------4---5-4-----3-2---3-2-------------------7---8-7--------------------|
A|----5---5----5----3-3-3-3-3-----1---3--1----8---8----8-------------------|
E|-----------------------------3----3------3-------------------------------|


       G               F               Eb
e|-------------------------------------------------------------------------|
B|---------12-12-12-12----10-10-10-10--8~~~~-------------------------------|
G|---------12-12-12-12----10-10-10-10--8~~~~-------------------------------|
D|---------12-12-12-12----10-10-10-10--8~~~~-----------8-10b-8-------------|
A|-----10--------------12-------------------------8-10---------------------|
E|-------------------------------------------8-10--------------------------|

Verse

just keep strumin'

e|-------------------------------------------------------------------------|
B|-10----13-----8----6----10----5---6------8-------------------------------|
G|-------------------------------------------------------------------------|
D|-12----15----10----8----12----7---8-----10-------------------------------|
A|-10----13-----8----6----10----5---6------8-------------------------------|
E|-------------------------------------------------------------------------|

The 2nd and 3rd verse are put together by these two riffs:
listen for timing and order, im to lazy wrigt the same thing over and over again.

e|-------------------------------------------------------------------------|
B|-10----13-----8----6--------------------10---5---6---8-------------------|
G|------------------------<>-12---7---8---10------------------|
A|-10----13-----8----6--------------------10---5---6---8-------------------|
E|-------------------------------------------------------------------------|

Interlude
listen to the track for timing! first he keeps strumin it.

e|-------------------------------------------------------------------------|
B|--5----6---8--------5-----8---6------------------------------------------|
G|-------------------------------------------------------------------------|
D|--7----8---10-------7-----10--8------------------------------------------|
A|--5----6---8--------5-----8---6------------------------------------------|
E|-------------------------------------------------------------------------|

| /  slide up
| \  slide down
| h  hammer-on
| p  pull-off
| ~  vibrato
| +  harmonic
| x  Mute note
===============================================================================
Tap to rate this tab
# A B C D E F G H I J K L M N O P Q R S T U V W X Y Z