Song name
# A B C D E F G H I J K L M N O P Q R S T U V W X Y Z

Sonic Youth - Total Trash tab

dont really know if the songs in standard tuning or not, this might not be correct, but 
really close to the real thing.

This is the main riff.
-----------------------------|
-----------------------------|
-----------------------------|
-0--2-0-2-4-0--0-2-0-2-4-4-4-|
-0--0-0-0-0-0--0-0-0-0-0-0-0-|
-----------------------------|
PM:*************************

This part is played after the main riff, its the bend part.
----------------------------|
----------------------------|
----------------------------|
-4-4-4-2---0-2----2-2-2b-0--|
----------------------------|
----------------------------|

This is another part of the main riff played after the bend part;
-----------------------------|
-----------------------------|
-----------------------------|
5--7-5-7-9--5--5-7-5-7-9-9-9-|
-----------------------------|
-----------------------------|

this is a pretty fun song to jam along to, have fun!
Tap to rate this tab
# A B C D E F G H I J K L M N O P Q R S T U V W X Y Z